Song name
# A B C D E F G H I J K L M N O P Q R S T U V W X Y Z

Limp Bizkit - My Way tab

Limp Bizkit - My Way

Tuning : Half-Step Down + Drop D

/ = Slide

INTRO:

---------|---------------------|
---------|--3------------------|
---------|--3---------2--------|
----4----|------------3--------|    (repeat)
----5----|---------------------|  
---------|---------------------|

VERSE 1:


--------------------------6-----------------------------|
------3----------------6------------------6-------------|
----2---------------3-----------------5-----------------| (You can kinda
--0-------------------------------3---------------------| play this riff in
--------------------------------------------------------|  the 1st verse)
--------------------------------------------------------|

CHORUS:


--3-----------------------------------------------------|
--2-----------------------------------------------------|
--3-----------------------------------------------------|
--0-----------------------------------------------------|
--0-----------------------------------------------------|
--0-----------------------------------------------------|
(This time imma let it all come out)


--3---------------5-------------------------------------|
--3---------------5-------------------------------------|
--4---------------6-------------------------------------|
--5---------------7-------------------------------------|
--5---------------7-------------------------------------|
--5---------------7-------------------------------------|
(This time imma standin up and shout)


-3---------------------------3-----------1--------------|
-2---------------------------3-----------1--------------|
-3---------------------------4-----------2--------------|
-0---------------------------5-----------3--------------|  (Repeat Once)
-0---------------------------5-----------3--------------|
-0---------------------------5-----------3--------------|
(Imma do things my way, it's my way, my way on the highway)

 

REPEAT INTRO


REPEAT 1ST VERSE


REPEAT CHORUS


BRIDGE 1: (After Second Chorus)


-----------------------------------------------------------|
-----------------------------------------------------------|
-----------------------------------------------------------|
-0-0--0-0-0---------3-3--0/3-0/3--3--0/3-------------------|(repeat)
-0-0--0-0-0---------3-3--0/3-0/3--3--0/3-------------------|
-0-0--0-0-0---------3-3--0/3-0/3--3--0/3-------------------|
    (Some day you'll see things my way....


-----------------------------------------------------------|
-----------------------------------------------------------|
-----------------------------------------------------------|
--0-0--0-0-0------------------3-3--0/3--0/3----------------|
--0-0--0-0-0------------------3-3--0/3--0/3--(Hold)--------|
--0-0--0-0-0------------------3-3--0/3--0/3----------------|
    (Cause you never know, no ya never know...when you're gonna go 

BRIDGE 2:

--------------------------------------------------------|
-------0-0-------------------------3-3------------------|
---------------------0-0--------0-------------2-2-------|
----2---------------------------------------0-----------|
--0--------------3-----------3--------------------------|
--------------3---------------------------5-------------|


-------0-0------------------3-3-------------------------|
------------------1-1-----1---------------3-3-----------|
----2----------------------------------0----------------|
--0-------------3-------3-------------------------------| (Repeat)
--------------1---------------------3-------------------|
--------------------------------------------------------|

PRE CHORUS:


-----------------3-------5-------------------3-------1--------|
----3------------1-------3--------3----------1-------1--------|
----2-----------------------------2---------------------------|
--------------------------------------------------------------| (Repeat)
--------------------------------------------------------------|
--------------------------------------------------------------|
just one, more fight and i'll be history, yes I will straight up...)

REPEAT CHORUS

REPEAT BRIDGE 1

REPEAT PRE CHORUS till the END
Tap to rate this tab
# A B C D E F G H I J K L M N O P Q R S T U V W X Y Z