Song name
# A B C D E F G H I J K L M N O P Q R S T U V W X Y Z

Limp Bizkit - Break Stuff tab

This song its realy easy to play because you just use 3 strings (G,D,E).

Verse(intro)

G-----3-      REPEAT THIS 10 TIMES
D--2--3-
A--2----
E-------

Chorus

G-------------------------
D--2--2--2--2--2--2--2--1-
A--2--2--2--2--2--2--2--1-
E-------------------------

G-----------------------3-
D--2--2--2--2--2--2--2--3-
A--2--2--2--2--2--2--2----
E-------------------------

Verse

G-----3-
D--2--3-
A--2----
E-------

Chours

G-------------------------
D--2--2--2--2--2--2--2--1-
A--2--2--2--2--2--2--2--1-
E-------------------------

G-----------------------3-
D--2--2--2--2--2--2--2--3-
A--2--2--2--2--2--2--2----
E-------------------------

" feel like shit..."

G---------------------------
D--2--2--2--2--2--2--2--2--2
A--2--2--2--2--2--2--2--2--2
E---------------------------

"Give me something to break..."

G--3-     REPEAT THIS UNTIL FRED SINGS "SO COME AND GET IT"
D--3-
A-----2-
E-----2-

Chours

G-------------------------
D--2--2--2--2--2--2--2--1-
A--2--2--2--2--2--2--2--1-
E-------------------------

G-----------------------3-
D--2--2--2--2--2--2--2--3-
A--2--2--2--2--2--2--2----
E-------------------------

Thats it you just have to time it good and its gona sound awsome!

            SO COME AND GET IT!
Tap to rate this tab
# A B C D E F G H I J K L M N O P Q R S T U V W X Y Z