Song name
# A B C D E F G H I J K L M N O P Q R S T U V W X Y Z

Limp Bizkit - No Trust tab

tuning from low to hi (6th string to 1st string)
C# F# B E G# C#

intro clean tone
play this rhythmically with up an down strokes 

C#----------------------------------------------------------
G#-14-x-14--13--14-13---12-x-12-12--11/-12-\11--------------
E--13-x-13--12--13-12---12-x-12-12--11/-12-\11--------------
B--12-x-12--11--12-11---11-x-11-11--10/-11-\10--------------
F#----------------------12-x-12-12--11/-12-\11--------------
C#-12-x-12--11--12-11---------------------------------------

play this on guitar two when fred says two-faced etc.

C#----------------------------------------------------------
G#-------------5-b-(5)--------------------------------------
E-----------------------------------------------------------
B-----------------------------------------------------------
F#----------------------------------------------------------
C#----------------------------------------------------------

main riff wt heavy dixt (try treble 8 bass 7 & midd 5)

C#----------------------------------------------------------
G#----------------------------------------------------------
E-----------------------------------------------------------
B-----------------------------------------------------------
F#----------------------------------------------------------
C#---1---0-1-0-0-1-1--1-0-1-0-0-1-1--1-0-1-0-0-1-1-5-0-5-0-6-6--ect...........-----(repeat)

when fred shouts "what the fuck u gunna do?" another guitar plays wit a ring modulater (try either ZOOM or BLACK CAT ring mods)
ill callthis fill A

C#----------------------------------------------------------
G#----------------------------------------------------------E-----------------------------------------------------------B-----------------------------------------------------------F#----------------------------------------------------------C#--------------5-0-5-0-5-6-0-------------------------------

and after that DJ letha; plays this sample (recorded by wes)
1 A1
C#----24-B----\/\/\/\/\/\/\/\/\/\/\/------------------------
G#----------------------------------------------------------E-----------------------------------------------------------B-----------------------------------------------------------F#----------------------------------------------------------C#----------------------------------------------------------

VERSE play it all palm muted

C#----------------------------------------------------------
G#----------------------------------------------------------
E-----------------------------------------------------------B-----------------------------------------------------------F#----------------------------------------------------------C#--0-1-0--0-1-0--0-1-0--0-1-0--0-1-0--0-1-0-1-0-1 etc..(play over and over again 4 a lil bit)
at then end of the verse play 

C#----------------------------------------------------------G#----------------------------------------------------------E-----------------------------------------------------------B-----------------------------------------------------------F#----------------------------------------------------------C#--0-1-0-0-1-0---------------------------------------------

play this with Fils A and A1
(bridge)

C#----------------------------------------------------------F#----------------------------------------------------------E-----------------------------------------------------------B-----------------------------------------------------------F#----------------------------------------------------------C#--13--0-0---0--16--15--14--13--0-0-0-0 ect...-------------

when fred says "to be exact i wanted to react..." play this fill 

C#----------------------------------------------------------G#----------------------------------------------------------E-----------------------------------------------------------B-----------------------------------------------------------F#----------------------------------16-15-14-13-------------C#----------------------------------------------------------

when fred says "i dont trust nobody " play this all palm muted 

C#----------------------------------------------------------G#----------------------------------------------------------E-----------------------------------------------------------B-----------------------------------------------------------F#----------------------------------------------------------C#-----0-1-0-1--00-----0-1-0-1-00---------0-1-0-1-00

these are kinda wierd bar structures so jus listen to the song to ge it

lots a dist

C#----------------------------------------------------------G#----------------------------------------------------------E-----------------------------------------------------------B-----------------------------------------------------------F#----------------------------------------------------------C#--1-0-4---0-1-0-1-1-0--0-1-0-1-0-4-0-1-0-1-1-0--0-1-0 ect.....----------------------------------------------------

thas bout it all fokes think its bout 100% rite but if it aintjus e-mail me at skaterpim9@aol.com peace ya all
Tap to rate this tab
# A B C D E F G H I J K L M N O P Q R S T U V W X Y Z