Song name
# A B C D E F G H I J K L M N O P Q R S T U V W X Y Z

Limp Bizkit - Walking Away tab

Limp Bizkit - Walking Away

From the New Album Gold Cobra

Wes Borland

Standard Tuning EADGBe


INTRO {With Slight Delay}
[PART A]

 e|---------------------------------------------------------------------|
 B|---------------------------------------------------------------------|
 G|-----4-4-2h4-4-2h4-4-------4-4-2h4-4-2h4-4--------4-4-2h4-4-2h4-4----|
 D|---------------------------------------------------------------------|
 A|---------------------------------------------------------------------|
 E|-0-0-------------------0-0--------------------0-0--------------------|

 e|---------------------------------------------------------------------|
 B|---------------------------------------------------------------------|
 G|-----4-4-2h-4-4-2h4-4------------------------------------------------|
 D|---------------------------------------------------------------------|
 A|---------------------------------------------------------------------|
 E|-0-0-----------------------------------------------------------------|

[PART B]

 e|---------------------------------------------------------------------|
 B|---------------------------------------------------------------------|
 G|-----4-4-2h4-4-2h4-4-------4-4-2h4-4-2h4-4--------4-4-2h4-4-2h4-4----|
 D|---------------------------------------------------------------------|
 A|---------------------------------------------------------------------|
 E|-0-0-------------------0-0--------------------3-3--------------------|

 e|---------------------------------------------------------------------|
 B|-------------3-------------------------------------------------------|
 G|-----4-4-2-4---------------------------------------------------------|
 D|---------------------------------------------------------------------|
 A|-0-0-----------------------------------------------------------------|
 E|---------------------------------------------------------------------|

First and Last Part of Intro is PART A

VERSE - PART B of Intro

CHORUS {with Delay} {Very Slight Distortion sounds good with this}

 e|---------------------------------------------------------------------|
 B|---------------------------------------------------------------------|
 G|-----4-4-2h4-4-2h4-4-------4-4-2h4-4-2h4-4--------4-4-2h4-4-2h4-4----|
 D|---------------------------------------------------------------------|
 A|---------------------------------------------------------------------|
 E|-0-0-------------------3-3--------------------5-5--------------------|

 e|---------------------------------------------------------------------|
 B|-------------3-------------------------------------------------------|
 G|-----4-4-2-4---------------------------------------------------------|
 D|---------------------------------------------------------------------|
 A|---------------------------------------------------------------------|
 E|-0-0-----------------------------------------------------------------|

VERSE 2 - PART B 

CHORUS 2 {Heavy Distortion}

 e|---------------------------------------------------------------------|
 B|---------------------------------------------------------------------|
 G|--------4-4-4-4-4-4---------7-7-7-7-7-7---------9-9-9-9-9-9----------|
 D|--------x-x-x-x-x-x---------x-x-x-x-x-x---------x-x-x-x-x-x----------|
 A|--------2-2-2-2-2-2---------5-5-5-5-5-5---------7-7-7-7-7-7----------|
 E|-0-0--0--------------3-3--3--------------5-5--5----------------------|


 e|---------------------|
 B|---------------------|
 G|--------4-----4------|  If you wish, you can make the Root Bass notes
 D|--------x-----x------|  into power chords, but I think it sounds better
 A|--------2--2--2------|  like I've tabbed it.
 E|-0-0--0----0---------|

PRE-SOLO

 D|-----------------|
 A|-----------2---2-|
 E|-0-0--0--0---0---|

SOLO (I haven't got all of it so far, just the first bar, any Suggestions are welcome)

 e|----------------------------------------------------|
 B|----------------------------------------------------|
 G|---4tr---6tr-7tr---9tr---11-9-7--9-7-6--6-7-4-4-----|
 D|----------------------------------------------------|
 A|----------------------------------------------------|
 E|----------------------------------------------------|

The solo is just notes in that scale, which I believe to be G major 
[G A B C D E F# G] so if you improv. on that above, you can fudge it or make it fit :P

Chords to the SOLO

 D|-2-2--2---5-5--5---7-7--7---2-2--2-|
 A|-2-2--2---5-5--5---7-7--7---2-2--2-|
 E|-0-0--0---3-3--3---5-5--5---0-0--0-|


CHORUS 3 (Same as CHORUS 2){Heavy Distortion}


OUTRO - INTRO PART B. Slowdown towards the end, and finish on the D 
                                                (3rd fret B string)

Cheers, and Enjoy x
Tap to rate this tab
 
# A B C D E F G H I J K L M N O P Q R S T U V W X Y Z