Song name
# A B C D E F G H I J K L M N O P Q R S T U V W X Y Z

Limp Bizkit - Rollin tab

Limp Bizkit
Rollin' (Air Raid Vehicle)
Chocolate Starfish And The Hot Dog Flavoured Water

Tuning Drop D (DADGBE)

Intro:

E|---------------------------------------------------------------------------|
B|---------------------------------------------------------------------------|
G|----------14-14-14-10-10-10------------------------------------------------|
D|-12-12-12------------------------------------------------------------------|
A|----------12-12-12-8--8--8-------------------------------------------------|
D|-12-12-12------------------------------------------------------------------|

Chorus:

E|---------------------------------------------------------------------------|
B|---------------------------------------------------------------------------|
G|---------------------------------------------------------------------------|
D|-------0-0-0---------------------------------------------------------------|
A|-0-0-0-0-0-0-3-3-3-3-3-3-2-3-----------------------------------------------|
D|-0-0-0-------3-3-3-3-3-3-2-3--0\--0\--0\-----------------------------------|

                          To Do This Part Here Use A Treble Bar Or Whammy Bar

Verses:

E|---------------------------------------------------------------------------|
B|---------------------------------------------------------------------------|
G|---------------------------------------------------------------------------|
D|---------------------------------------------------------------------------|
A|----------12-12-12-8-8-8-8-8-8-7-8-----------------------------------------|
D|-12-12-12--------------------------12\-12\-12\-----------------------------|

Hey Ladies Hey Fellas Part:

E|---------------------------------------------------------------------------|
B|---------------------------------------------------------------------------|
G|---------------------------------------------------------------------------|
D|---------------------------------------------------------------------------|
A|---------------------------------------------------------------------------|
D|-12\-12\-12\---------------------------------------------------------------|

Order:
Intro 8x
Chorus 4x
Verse 6x
Intro 4x
Chorus 4x
Verse 6x
Intro 4x
Chorus 4x
Hey Ladies Hey Fellas Part 3x
Chorus 4x

Not Sure If Order Is Right. Listen To Song To Get It Right

Thats It. Enjoy
Tap to rate this tab
# A B C D E F G H I J K L M N O P Q R S T U V W X Y Z