Song name
# A B C D E F G H I J K L M N O P Q R S T U V W X Y Z

Lindsay Lohan - Take Me Away tab

If you change this into rock chords for example F# is 2nd fret. i hope you like 
it, it took me ages. Listen to song for timing but im sure its 100% accurate :)

normal tuning
intro F#

Riff
e|-----------------------------------------------------------------|
B|-----------------------------------------------------------------|
G|-----------------------------------------------------------------|
D|-----------------------------------------------------------------|
A|-------0-1-2-------------3-2-0-2-2-0-----------------------------|
E|--2-2------------------------------------------------------------|


Yeah,Yeah

Get up, Get out
Move on, move up, 
there’s no doubt
I’m all wrong, you’re right
It’s all the same with you
I’m too fit, too fat 
You miss why
So why,
So why,
So why,
So why 

F#
On and on, 
And on and on, 
On and on,
And on and on…

::Chorus::
D                      F#
Don’t want to grow up
                  B
I want to get out
      A             D
Hey! Take me away
                    F#
I want to shout out
              B
Take me away, 
      A
Away, 
      E
Away, 
      F#
Away,
      C
Away…

Riff
e|-----------------------------------------------------------------|
B|-----------------------------------------------------------------|
G|-----------------------------------------------------------------|
D|-----------------------------------------------------------------|
A|-------0-1-2-------------3-2-0-2-2-0-----------------------------|
E|--2-2------------------------------------------------------------|

‘Round and ‘round, 
Here we go again
Same old start, same old end
Turn my head 
And turn back again 
Same old stuff, 
Never ends

Do this, do that 
Can’t deal, can’t deal with that
I tune in, tune out
I’ve heard it all before
Hello, goodbye
Never asking me why,
Goodbye, 
Goodbye, 
Goodbye…

F#
On and on, 
And on and on, 
On and on,
And on and on…

::Chorus::
D                      F#
Don’t want to grow up
                  B
I want to get out
      A             D
Hey! Take me away
                    F#
I want to shout out
              B
Take me away, 
      A
Away, 
      E
Away, 
      F#
Away,
      C
Away…

::Guitar Solo::
e|--------------------------------------------------------------------------|
B|---------------------------------------------------------19^19-17-15-14^--|
G|------------------------------17^-17-15-12-11^-11-9-7-14^-----------------|
D|-------------------11^-9-7------------------------------------------------|
A|--9^9^9^-7p0--9^9^---------9----------------------------------------------|
E|--------------------------------------------------------------------------|

e|------------------------------------------------------------------11--14--15-----|
B|-14-14-12-10-19^19-17\14-15^-17^-18^-7-99-7-99--------------------14^-17^-19^----|
G|-----------------------------------------------11-10-11-13-11-10^----------------|
D|---------------------------------------------------------------------------------|
A|---------------------------------------------------------------------------------|
E|---------------------------------------------------------------------------------|

::Chorus::
D                      F#
Don’t want to grow up
                  B
I want to get out
      A             D
Hey! Take me away
                    F#
I want to shout out
              B
Take me away, 
      A
Away, 
      E
Away, 
      F#
Away,
      C
Away…

::Chorus::
D                      F#
Don’t want to grow up
                  B
I want to get out
      A             D
Hey! Take me away
                    F#
I want to shout out
              B
Take me away, 
      A
Away, 
      E
Away, 
      F#
Away,
      C
Away…

‘Round and ‘round here we go again
Same old story, same old end
Turn my head 
And turn back again 
Same old stuff
Never ends
Tap to rate this tab
 
# A B C D E F G H I J K L M N O P Q R S T U V W X Y Z