Song name
# A B C D E F G H I J K L M N O P Q R S T U V W X Y Z

Linkin Park - Lost In The Echo tab

Intro, starts at 0:15

e |---------------------------------------------------------------------------|
B | --------------------------------------------------------------------------|
G | --------------------------------------------------------------------------|
D | 0---2---7--777---5--555---3--333---0--000---------------------------------|  x 2
A | ----------7--777---5--555---3--333---0--000-------------------------------|
E | ----------7--777---5--555---3--333---0--000-------------------------------|



Pre-Chorus, starts at 0:48

            ^       ^                         ^       ^
e | -----13----12-----^-------------13----12----^------^----------------------|
B | -------------------15--------------------------15----17-------------------|
G | --------------------------------------------------------------------------|
D | --------------------------------------------------------------------------|
A | --------------------------------------------------------------------------|
E | --------------------------------------------------------------------------|



Chorus, starts at 1:03

B | --------------------------------------------------------------------------|
G | --------------------------------------------------------------------------|
D | 0----2----77777777555555553333333300000000--------------------------------|   x 2
A | ----------77777777555555553333333300000000--------------------------------|
E | ----------77777777555555553333333300000000--------------------------------|



Intro, at 1:20



Pre-Chorus, at 1:45



Bridge, starts at 2:33

e | --------^-------^-------^---------------^-------^-------^-------------------|
B | --------7-------7-------7---------------7-------7-------7-------------------|
G | ----------------------------------------------------------------------------|
D | ----7777----5555----3333----000000007777----5555----3333----00000000--------|
A | ----7777----5555----3333----000000007777----5555----3333----00000000--------|
E | ----7777----5555----3333----000000007777----5555----3333----00000000--------|



Second half of chorus, starts at 2:52


Intro again, at 3:03, played to the end



^ means, that the note is played with tremolo
Tap to rate this tab
# A B C D E F G H I J K L M N O P Q R S T U V W X Y Z