Song name
# A B C D E F G H I J K L M N O P Q R S T U V W X Y Z

Lita Ford - Kiss Me Deadly tab

Help us improve GuitareTab! Take a short survey!
Lita Ford  - Kiss Me Deadly

Intro/Verse(w/pm)
e|--------|
b|--------|
g|--5-----|
d|--5--3--|
a|--3--3--|
E|-----1--|

Chorus/Solo
e|-----------|
b|-----------|
g|--5--------|
d|--5--3--5--|
a|--3--3--5--|
E|-----1--3--|

“You know what I like…” Part 1
e|-----------------------------------------|
b|-----------------------------------------|
g|-------------------------------7---------|
d|--10--9--10------10--9--10--------10--9--|
a|-------------10-------------8------------|
E|-----------------------------------------|

“You know what I like…” Part 2
e|---------------------------------------------------------------------|
b|---------------------------------------------------------------------|
g|--9--7--9------9--7--9------------7--9--7--9------9--7--9------------|
d|-----------10-----------7--9--10--------------10-----------7--9--10--|
a|---------------------------------------------------------------------|
E|---------------------------------------------------------------------|

Chorus
e|-----------------|
b|--6-----8--------|
g|-----5-----7--5--|
d|-----------------|
a|-----------------|
E|-----------------|
Related for Kiss Me Deadly tab