Guitaretab - guitar tabs
Song name
# A B C D E F G H I J K L M N O P Q R S T U V W X Y Z
Home / L / Live / Waitress tab

Live - Waitress tab

Live – “Waitress”
From the album “Throwing Copper”
Released in 1994 by Radioactive Records

Tabbed By: Chad Taylor in the making.
Email: shadows_are_serenity_@hotmail.com


Tune ˝ step down (Eb Ab Db Gb Bb eb)


Legend

/  - Slide up to
\  - Slide down to
x  – Mute
.. – Palm mute
*  - See note


Fig. 1 (0:02)

eb|----x----x----x----x----x---------x----x----x----x----x-----x-----|
Bb|----x----x----x----x----x---------x----x----x----x----x-----x-----|
Gb|----5----5----5----5----5----/----7----7----7----7----7-----7-----|
Db|----5----5----5----5----5----/----7----7----7----7----7-----7-----|
Ab|----3----3----3----3----3----/----5----5----5----5----5-----5-----|
Eb|----x----x----x----x----x---------x----x----x----x----x-----x-----|

Lyrics:
Come on baby, leave some change behind.
She was a bitch, but I don’t care.
She brought our food out on time,
and wore a funky barrette in her hair.


(Play four times, then play):

eb|----x----x----x----x----|
Bb|----x----x----x----x----|
Gb|----5----5----5----5----|
Db|----5----5----5----5----|
Ab|----3----3----3----3----|
Eb|----x----x----x----x----|

Lyrics:
Come on baby...

(Play one time)


Fig. 2 (0:13)

eb|----x--------x--------x--------x--------|
Bb|----x--------x--------x--------x--------|
Gb|----x--------x--------x--------x--------|
Db|----5--------7--------9-------10--------|
Ab|----5--------7--------9-------10--------|
Eb|----3--------5--------7--------8--------|

-----x--------x--------x----|
-----x--------x--------x----|
-----x--------x--------x----|
-----5--------7--------9----|
-----5--------7--------9----|
-----3--------5--------7----|

Lyrics:
...leave some change behind.
She was a bitch, but good enough to leave some change.
Everybody’s good enough for some change.

The girl’s got family, she needs cash
To buy aspirin for her pain.
Everybody’s good enough for some change.


(Play two times, then play):
(0:33)
[ Tab from: http://www.guitaretab.com/l/live/27298.html ]
eb|----x----x----x----x----x----x----x----x----x----|
Bb|----x----x----x----x----x----x----x----x----x----|
Gb|----x----x----x----x----x----x----x----x----x----|
Db|----9----9----9----9----5----9----9----9----9----|
Ab|----9----9----9----9----5----9----9----9----9----|
Eb|----7----7----7----7----3----7----7----7----7----|
                    Strum

Lyrics:
Some fucking change!


(Repeat Fig. 1 one time)
Lyrics:
Come on baby, leave some change behind.
She was a bitch, but I don’t care.
She brought our food out on time,
and wore a funky barrette in her hair.


(Repeat Fig. 2 two times)
Lyrics:
Come on baby, leave some change behind.
She was a bitch, but good enough to leave some change.
Everybody’s good enough for some change.

We all get the flu, we all get AIDS.
We’ve got to stick together after all.
Everybody’s good enough for some change.
Some fucking change!


(Repeat Fig. 1 one time)
Lyrics:
Come on baby!


Fig. 3 (1:22)
I am really not sure about this part at all; this is the way it sounds played to me 
an effect(s) added to it. Again, I am not sure so it may or may not be off. Please judge accordingly.

                                                                                         
                                                  *
eb|----x--------x--------x--------x----x----x----x---------x----\----|
Bb|----x--------x--------x--------x----x----x----x---------x----\----|
Gb|----x--------x--------x--------x----x----x----x---------x----\----|
Db|----5--------7--------9-------10---12---14—---16---\---10----\----|
Ab|----5--------7--------9-------10---12---14—---16---\---10----\----|
Eb|----3--------5--------7--------8---10---12—---14---\----8----\----|
      ..        ..       ..      ..   ..   ..    ..       ..

(strum each chord quickly and evenly several times)
* - Slide down fret board


(Repeat Fig. 1 one time)
(Repeat Fig. 3 one time, then play):

(1:52)

eb|----x----x----x----x----|
Bb|----x----x----x----x----|
Gb|----5----5----5----5----|
Db|----5----5----5----5----|
Ab|----3----3----3----3----|
Eb|----x----x----x----x----|


(Repeat Fig. 2 until fade)


END
Related for Waitress tab