Guitaretab - guitar tabs
Song name
# A B C D E F G H I J K L M N O P Q R S T U V W X Y Z

Loso - Fon Tok Tee Na Tang tab

yo im am i big loso fan so i now alot of  there tabs so this tab is by ear so dont ask 
to listen to a song and make a tab ok i do what songs i like and ways this is loso's fon 
tee na-tang solo 100% correct no doubt


E----------------------------------------------------------------------------|
B-12-------12----------------------------------------------------------------|
G----12h14----12-14-11-12---12-11----11-16-14-14-14--------------------------|
D---------------------------------14-----------------------------------------|
A----------------------------------------------------------------------------|
E----------------------------------------------------------------------------|
[ Tab from: http://www.guitaretab.com/l/loso/84591.html ]
E----------------------------------------------------------------------------|
B-12-------------------------------------------------------------------------|
G----14-12-14-16-12-14-11-12--12-11-14-11-12-16-14-16-14---------------------|
D----------------------------------------------------------------------------|
A----------------------------------------------------------------------------|
E----------------------------------------------------------------------------|

E-----------------------------------------------------------------------------|
B-15-13-12-13-15-12-13----12-----------------------------------------------15-|
G----------------------14----14-12-11-12-14-16-14-12-------12--12/14-14/16----|
D----------------------------------------------------12H14--------------------|
A-----------------------------------------------------------------------------|
E-----------------------------------------------------------------------------|

E----------------------------------------------------------------------------------------|
B-16/14-14/12-14/12-------12~-----------------------------4----2H0-2H0-------------------|
G-------------------12/14-----------------------------------3/---------------------------|
D----------------------------------------------------------------------------------------|
A----------------------------------------------------------------------------------------|
E----------------------------------------------------------------------------------------|
Related for Fon Tok Tee Na Tang tab
×
Fon Tok Tee Na Tang