Song name
# A B C D E F G H I J K L M N O P Q R S T U V W X Y Z

Ludwig Van Beethoven - 9th Symphony tab

|--0-0-1-3-3-1-0---------0-0------|-0-0-1-3-3-1-0-------0-------|
|----------------3-1-1-3-----3-3--|--------------3-1-1-3--3-1-1-|
|---------------------------------|-----------------------------|
|---------------------------------|-----------------------------|
|---------------------------------|-----------------------------|
|---------------------------------|-----------------------------|

|-----0------0-1-0-----0-1-0--------|
|-3-3--1--3--------1--3-----3-1-3---|
|---------------------------------0-|
|-----------------------------------|
|-----------------------------------|
|-----------------------------------|

hello, this is my first time tabbing.  I found mistakes in the other
versions of the ninth, so this is the correct one.  At the end you
repeat the second bar.
See you!
Monika
jane_eyre10@yahoo.com
Tap to rate this tab
 
# A B C D E F G H I J K L M N O P Q R S T U V W X Y Z