Ludwig Van Beethoven - Tempest Sonata Mvt 3 tab

Beethoven's Tempest Sonata 3rd Movement
Capo on 5th fret

E|-----------------------------------------------------------------------------------|
B|-----1--0--------------1--0--------------1--0--------------1--0--------------1-----|
G|-----------------2-----------------2-----------------2-----------------2--------2--|
D|--2-----------2-----2-----------2-----2-----------2-----2-----------2-----2--------|
A|-----------0-----------------0-----------------0-----------------0-----------------|
E|-----------------------------------------------------------------------------------|


E|-----------------------------------------------------------------------------5--1--------1--|
B|-----------3--1--0--------3--1--0-----------3--1--0-----------3--0--1-----5-----------3-----|
G|-----------------------------------------------------------------------2-----------2--------|
D|--------2--------------2--------------2--2--------------2--2--------------------0-----------|
A|-----2--------------2--------------2-----------------2--------------0-----------------------|
E|--0--------------0--------------0-----------------0-----------------------------------------|


E|--------------1-----------------0--|
B|--3--------3-----3-----------0-----|
G|--------3-----------4-----1--------|
D|-----3-----------------2-----------|
A|--1--------------------------------|
E|--------------------4--------------|
Tap to rate this tab
 
# A B C D E F G H I J K L M N O P Q R S T U V W X Y Z