Song name
# A B C D E F G H I J K L M N O P Q R S T U V W X Y Z

Mac Demarco - My Kind Of Woman tab

-------------------------------------------------------------------------------
                             MY KIND OF WOMAN - Mac DeMarco
-------------------------------------------------------------------------------

Tabbed by:Adrian
E-mail: shyscope@gmail.com

Tuning: Standard

Description: This is my version of playing the song, and yes, the original tab by fmanzanilla
played a huge influence in this tab. I give him credit for making the original tab. 
It's just that I find this way a bit easier, and should sound 100% correct.
If not, then leave a comment and I will come back and fix it.


CAPO on 2nd FRET

Opening Note:

E|---------0-----------|
B|---------0-----------|
G|---------0-----------|
D|---------0-----------|
A|---------0-----------|
E|---------------------|

Verses:

E|-12---10---9---------|-----------9---------|-----------9---------|-----------10---9----|
B|-10---8---------10---|------10--------10---|------10--------10---|------10---9----7----|
G|---------------------|-11------------------|-11------------------|-11------------------|
D|---------------------|---------------------|---------------------|---------------------|
A|---------------------|---------------------|---------------------|---------------------|
E|---------------------|---------------------|---------------------|---------------------|


E|-5-------------------|-5-------------------|-0-------------------|
B|------5---------5----|------5---------5----|------0---------0----|
G|-----------0---------|-----------0---------|-----------0---------|
D|---------------------|---------------------|---------------------|
A|---------------------|---------------------|---------------------|
E|---------------------|---------------------|---------------------|

Jumping from the last chord on the 2nd fret to the
 first chord on the 10th fret is a bit of a challenge without a capo. 
Definitely doable, just not going to sound as clean as using a capo. 

Chorus:

E|-9---------------9---|---------9-----------|------12-----12------|
B|-10---------10-------|-----10--------10----|------10-----10------|
G|-9------9------------|--9---------9--------|---------------------|
D|---------------------|---------------------|---------------------|
A|---------------------|---------------------|---------------------|
E|---------------------|---------------------|---------------------|


E|-9---------------9---|---------9-----------|------10-----10------|
B|-10---------10-------|-----10--------10----|------10-----10------|
G|-9------9------------|--9---------9--------|---------------------|
D|---------------------|---------------------|---------------------|
A|---------------------|---------------------|---------------------|
E|---------------------|---------------------|---------------------|

Ending note:

E|---------0-----------|
B|---------0-----------|
G|---------0-----------|
D|---------0-----------|
A|---------------------|
E|---------------------|
Tap to rate this tab
# A B C D E F G H I J K L M N O P Q R S T U V W X Y Z