Song name
# A B C D E F G H I J K L M N O P Q R S T U V W X Y Z

Marilyn Manson - Beautiful People tab

Marilyn Manson
Song: The Beautiful People
Tabbed By Dude_SN

TUNE TO DROP D!!!

h: hammer on
p: pull off
pm: palm mute
/:slide up
\:slide down

          Intro
          ----------------------|-------------------------|-------|
          ----------------------|-------------------------|-------|
          ----------------------|-------------------------|-------|
          ----------------------|-------------------------|-------|
          ----------------------|-------------------------|-------|
          --0pm-0pm-0pm-0pm-0pm-|---0pm-0pm-0pm-0pm-0pm---|-------|

          Do That Several Times, then-

          Riff A
          -------------|
          -------------|
          -------------|
          -------------|x3
          ---0---3---0-|
          ---0---3---0-|

          Then...

          Main Riff
          -----------------|-----------------|-------------------|
          -----------------|-----------------|-------------------|
          -----------------|-----------------|-------------------|
          -----------------|-----------------|-------------------|
          ---0h6---0h6---0-|---0h6---0h6---0-|---0h3-0-----------|
          ---0h6---0h6---0-|---0h6---0h6---0-|---0h3-0-----------|


          End of First Verse
          -----------------------|------------------------------|
          -----------------------|------------------------------|
          -----------------------|------------------------------|
          -----------------------|------------------------------|
          -----------------------|------------------------------|
          ---0pm-0pm-0pm-0pm-0pm-|---0pm-0pm-0pm-0pm-0pm--------|

          Riff B
          -----------|-----------------------|
          -----------|-----------------------|
          -----------|-----------------------|
          -----------|-----------------------|
          -----------|-----------------------|
          ---0pm-0pm-|---0pm-0pm-0pm-0pm-0pm-|
          Play  Riff B several times, then pre-chourus

          Pre-Chorus
          -------------------------------------------------------|
          -------------------------------------------------------|
          -------------------------------------------------------|
          -------------------------------------------------------|
          ---5----------------------4----------------------3-----|
          ---5-5pm-5pm-5pm-5pm-5pm\-4-4pm-4pm-4pm-4pm-4pm\-3-3pm-|


          -----------------------------------------------------|
          -----------------------------------------------------|
          -----------------------------------------------------|
          -----------------------------------------------------|
          -----------------6---------------------5-------------|
          -3pm-3pm-3pm-3pm/6-6pm-6pm-6pm-6pm-6pm\5-5pm-5pm-5pm-|

          ------------------------------------------------------|
          ------------------------------------------------------|
          ------------------------------------------------------|
          ------------------------------------------------------|
          ---------4----------------------3---------------------|
          5pm-5pm\-4-4pm-4pm-4pm-4pm-4pm\-3-3pm-3pm-3pm-3pm-3pm-|
           Continue this pattern, then...

          Chorus
          -----------------|-----------------|-------------------|
          -----------------|-----------------|-------------------|
          -----------------|-----------------|-------------------|
          -----------------|-----------------|-------------------|
          ---0h6---0h6---0-|---0h6---0h6---0-|---0h3p0-----------|
          ---0h6---0h6---0-|---0h6---0h6---0-|---0h3p0-----------|


           Second Verse Riff
          ------------------|
          ------------------|
          ------------------|
          ------------------|
          ---------------3p0|
          ---0pm-0pm-0pm-3p0|

          Then...


          Riff B
          -----------|-----------------------|
          -----------|-----------------------|
          -----------|-----------------------|
          -----------|-----------------------|
          -----------|-----------------------|
          ---0pm-0pm-|---0pm-0pm-0pm-0pm-0pm-|
          Play  Riff B several times, then pre-chourus


           Pre-Chorus
          -------------------------------------------------------|
          -------------------------------------------------------|
          -------------------------------------------------------|
          -------------------------------------------------------|
          ---5----------------------4----------------------3-----|
          ---5-5pm-5pm-5pm-5pm-5pm\-4-4pm-4pm-4pm-4pm-4pm\-3-3pm-|


          -----------------------------------------------------|
          -----------------------------------------------------|
          -----------------------------------------------------|
          -----------------------------------------------------|
          -----------------6---------------------5-------------|
          -3pm-3pm-3pm-3pm/6-6pm-6pm-6pm-6pm-6pm\5-5pm-5pm-5pm-|

          ------------------------------------------------------|
          ------------------------------------------------------|
          ------------------------------------------------------|
          ------------------------------------------------------|
          ---------4----------------------3---------------------|
          5pm-5pm\-4-4pm-4pm-4pm-4pm-4pm\-3-3pm-3pm-3pm-3pm-3pm-|
           Continue this pattern, then...


          Chorus
          -----------------|-----------------|-------------------|
          -----------------|-----------------|-------------------|
          -----------------|-----------------|-------------------|
          -----------------|-----------------|-------------------|
          ---0h6---0h6---0-|---0h6---0h6---0-|---0h3-0-----------|
          ---0h6---0h6---0-|---0h6---0h6---0-|---0h3-0-----------|

          This riff is played during the bridge, in between the times
          hes whispering"The beautiful people, the beautiful-AHHHHHHHH!"

          Bridge
          ------------------|  -It's the same riff as "Second Verse Riff"
          ------------------|
          ------------------|
          ------------------|
          ---------------3-0|
          ---0pm-0pm-0pm-3-0|

          Then, the chorus again...


           Chorus
          -----------------|-----------------|-------------------|
          -----------------|-----------------|-------------------|
          -----------------|-----------------|-------------------|
          -----------------|-----------------|-------------------|
          ---0h6---0h6---0-|---0h6---0h6---0-|---0h3-0-----------|
          ---0h6---0h6---0-|---0h6---0h6---0-|---0h3-0-----------|

                 There it is. Play LOUD and HEAVY!
Tap to rate this tab
 
# A B C D E F G H I J K L M N O P Q R S T U V W X Y Z