Song name
# A B C D E F G H I J K L M N O P Q R S T U V W X Y Z

Marilyn Manson - Great Big White World tab

Help us improve GuitareTab! Take a short survey!
By: Chris 7
E-mail: manson33@citromail.hu

---------------------------------------------------------------------------
                  Marilyn Manson – Great Big White World
---------------------------------------------------------------------------

[„In Space, the stars...” / „And hell was so cold”...]

E|----------------|-----------------|-----------------|-----------------|-|
H|1-4-3^^^-1-4-3-1|-1-4-3^^^-1-4-3-1|-1-4-3^^^-1-4-3-1|-1-4-3^^^-1-4-3-1|-|
G|--------3-------|3--------3-------|3--------3-------|3--------3-------|3|
D|----------------|-----------------|-----------------|-----------------|-|
A|----------------|-----------------|-----------------|-----------------|-|
E|----------------|-----------------|-----------------|-----------------|-|

[„But I’m not attached...”]

E|----------------------------------------|
H|-4-3-4-3-4-4-3-4-3-4-4-3-4-3-4-4-3-4-3-4|
G|5---5---5-4---4---4-3---3---3-2---2---2-| x2
D|----------------------------------------|           Symbols: /-Slide Up
A|----------------------------------------|                    \-Slide Down
E|----------------------------------------|                    ^-Bend

[„Because it’s a great big white world...”]

E|----------------------8|
H|-----------------------|
G|--8-10^-8-----8-10^-8--| x4
D|10-------10-10---------|
A|-----------------------|
E|-----------------------|

[All my stiches itch...] (it’s continues under this) Verse 1

E|-------------------------------------------------------------------|
H|-------------------------------------------------------------------|
G|-------------------------------------------------------------------|
D|-------------------------------------------------------------------|
A|3-3-3-3-3-3-3/6-6-6-6-6-6-6/10101010101010108-8-8-8-8-8-8-8-8-8-8\-|
E|1-1-1-1-1-1-1/4-4-4-4-4-4-4/8-8-8-8-8-8-8-8\6-6-6-6-6-6-6-6-6-6-6\-|

E|----------------------------------------------|
H|----------------------------------------------|
G|----------------------------------------------|
D|----------------------------------------------|
A|\6-6-6-6-6-6-6-6-6-6-6\5-5-5-5\4-4-4-4\3-3-3-3|
E|\4-4-4-4-4-4-4-4-4-4-4\3-3-3-3\2-2-2-2\1-1-1-1|

[All my stiches itch...](it’s continues under this) Verse 2
(John paly this at the second time) play this all 2x

E|------------------------------------------------------------------|
H|------------------------------------------------------------------|
G|------------------------------------------------------------------|
D|------------------------------------------------------------------|
A|3-3-3-3-3-3-3/6-6-6-6-6-6-6/10101010101010108-8-8-8-8-8-8-8-8\\\--|
E|1-1-1-1-1-1-1/4-4-4-4-4-4-4/8-8-8-8-8-8-8-8\6-6-6-6-6-6-6-6-6\\\--|

E|-------------------------------------------------------------------|
H|-------------------------------------------------------------------|
G|-------------------------------------------------------------------|
D|-------------------------------------------------------------------|
A|3-3-3-3-3-3-3/6-6-6-6-6-6-6/10101010101010108-8-8-8-8-8-8-8-8-8-8\-|
E|1-1-1-1-1-1-1/4-4-4-4-4-4-4/8-8-8-8-8-8-8-8\6-6-6-6-6-6-6-6-6-6-6\-|

E|----------------------------------------------|
H|----------------------------------------------|
G|----------------------------------------------|
D|----------------------------------------------|
A|\6-6-6-6-6-6-6-6-6-6-6\5-5-5-5\4-4-4-4\3-3-3-3|
E|\4-4-4-4-4-4-4-4-4-4-4\3-3-3-3\2-2-2-2\1-1-1-1|
Related for Great Big White World tab