Song name
# A B C D E F G H I J K L M N O P Q R S T U V W X Y Z

Marilyn Manson - They Said Hells Nots Hot tab

                           
			--==THEY SAID HELL'S NOT HOT - Marilyn Manson==--


e|---------------------------3--3--3-3-3-|---------------------------------|
B|--1-1-1-x-1-1-x-0---0--0-0-0--0--0-0-0-|-x-1-1-x-1-1-x-0-----------------|
G|--2-2-2-x-0-0-x-0---0--0-0-0--0--0-0-0-|-x-2-2-x-0-0-x-0-----------------|
D|--2-2-2-x-2-2-x-2---2--2-2-0--0--0-0-0-|-x-2-2-x-2-2-x-2-----------------|
A|--0-0-0-x-3-3-x-2---2--2-2-2--2--2-2-2-|-x-0-0-x-3-3-x-2-----------------|
E|----------------0---0--0-0-3--3--3-3-3-|---------------0-----------------|

e|-------------------------------------------------------------------------|
B|-------------------------------------------------------------------------|
G|-------------------------------------------------------------------------|
D|-------------------------------------------------------------------------|
A|--12-12-11-11-10-10-9-9-8-8-7-7-5-5-4-4-3-3-2-2-1-1-0--0---0---0---------|
E|-------------------------------------------------------------------------|

e|---------------------------3--3--3-3-3-|--------------------------3---3--|
B|--1-1-1-x-1-1-x-0---0--0-0-0--0--0-0-0-|-x-1-1-x-1-1-x-0----x-x---0---0--|
G|--2-2-2-x-0-0-x-0---0--0-0-0--0--0-0-0-|-x-2-2-x-0-0-x-0----x-x---0---0--|
D|--2-2-2-x-2-2-x-2---2--2-2-0--0--0-0-0-|-x-2-2-x-2-2-x-2----x-x---0---0--|
A|--0-0-0-x-3-3-x-2---2--2-2-2--2--2-2-2-|-x-0-0-x-3-3-x-2----x-x---2---2--|
E|----------------0---0--0-0-3--3--3-3-3-|---------------0----x-x---3---3--|

e|-------0----------------0--------------1-0-------------0-----------------|
B|-----1----1-----------1----1---------3-----3---------1----1--------------|
G|------------2----------------2-----2---------2--------------2------------|
D|---2----------------2----------0-0-------------0---2---------------------|
A|-0------------0-2-3------------------------------0-----------------------|
E|-------------------------------------------------------------------------|

e|-------0-------------3---------------------------------------------------|
B|-----1----1--------------3----------0---------------1-------0------------|
G|------------2------0--------------0-----0---------0-------0--------------|
D|---2-----------------------0----2---------2-----2-------2----------------|
A|-0--------------2-------------2-------------2-3-------2------------------|
E|--------------3----------------------------------------------------------|

e|--1-1-1-1-1-1-1-1---------------------------------3-3-3-3-3-3-3-3--------|
B|--3-3-3-3-3-3-3-3-1-1-1-1-1-1-1-1-1-1-1-1-1-1-1-1-0-0-0-0-0-0-0-0--------|
G|--2-2-2-2-2-2-2-2-2-2-2-2-2-2-2-2-0-0-0-0-0-0-0-0-0-0-0-0-0-0-0-0--------|
D|--0-0-0-0-0-0-0-0-3-3-3-3-3-3-3-3-2-2-2-2-2-2-2-2-0-0-0-0-0-0-0-0--------|
A|------------------0-0-0-0-0-0-0-0-3-3-3-3-3-3-3-3-2-2-2-2-2-2-2-2--------|
E|--------------------------------------------------3-3-3-3-3-3-3-3--------|

e|---------------------------3--3--3-3-3-|--------------------------3---3--|
B|--1-1-1-x-1-1-x-0---0--0-0-0--0--0-0-0-|-x-1-1-x-1-1-x-0----x-x---0---0--|
G|--2-2-2-x-0-0-x-0---0--0-0-0--0--0-0-0-|-x-2-2-x-0-0-x-0----x-x---0---0--|
D|--2-2-2-x-2-2-x-2---2--2-2-0--0--0-0-0-|-x-2-2-x-2-2-x-2----x-x---0---0--|
A|--0-0-0-x-3-3-x-2---2--2-2-2--2--2-2-2-|-x-0-0-x-3-3-x-2----x-x---2---2--|
E|----------------0---0--0-0-3--3--3-3-3-|---------------0----x-x---3---3--|

e|-------0----------------0--------------1-0-------------0-----------------|
B|-----1----1-----------1----1---------3-----3---------1----1--------------|
G|------------2----------------2-----2---------2--------------2------------|
D|---2----------------2----------0-0-------------0---2---------------------|
A|-0------------0-2-3------------------------------0-----------------------|
E|-------------------------------------------------------------------------|

e|-------0-------------3---------------------------------------------------|
B|-----1----1--------------3----------0---------------1-------0------------|
G|------------2------0--------------0-----0---------0-------0--------------|
D|---2-----------------------0----2---------2-----2-------2----------------|
A|-0--------------2-------------2-------------2-3-------2------------------|
E|--------------3----------------------------------------------------------|

e|--1-1-1-1-1-1-1-1---------------------------------3-3-3-3-3-3-3-3--------|
B|--3-3-3-3-3-3-3-3-1-1-1-1-1-1-1-1-1-1-1-1-1-1-1-1-0-0-0-0-0-0-0-0--------|
G|--2-2-2-2-2-2-2-2-2-2-2-2-2-2-2-2-0-0-0-0-0-0-0-0-0-0-0-0-0-0-0-0--------|
D|--0-0-0-0-0-0-0-0-3-3-3-3-3-3-3-3-2-2-2-2-2-2-2-2-0-0-0-0-0-0-0-0--------|
A|------------------0-0-0-0-0-0-0-0-3-3-3-3-3-3-3-3-2-2-2-2-2-2-2-2--------|
E|--------------------------------------------------3-3-3-3-3-3-3-3--------|


| /  slide up
| \  slide down
| h  hammer-on
| p  pull-off
| ~  vibrato
| +  harmonic
| x  Mute note
============================================================================
Tap to rate this tab
# A B C D E F G H I J K L M N O P Q R S T U V W X Y Z