Song name
# A B C D E F G H I J K L M N O P Q R S T U V W X Y Z

Maroon 5 - Daylight tab

Standard Tuning EADGBE

Intro/verse

Finger Picking

E|-2-2-2-2-2-2-2-2-0-0-0-0-0-0-0-0----------------------------|
B|-3-3-3-3-3-3-3-3-3-3-3-3-3-3-3-3----------------------------|
G|-2-2-2-2-2-2-2-2-2-2-2-2-2-2-2-2----------------------------|
D|------------------------------------------------------------|
A|------------------------------------------------------------|
E|------------------------------------------------------------|

Pre-chorus

e|------------------------------------------------------------------|
B|-3-3-3-3-3-3-3-3-3-3-3-3-3-3-3-3-3-3-3-3-3-3-3-3-3-3-3-3-3-3-3-3--|
G|-2-2-2-2-2-2-2-2-2-2-2-2-2-2-2-2-2-2-2-2-2-2-2-2-2-2-2-2-2-2-2-2--|
D|-0-0-0-0-0-0-0-0--------------------------------------------------|
A|---------------------------------2-2-2-2-2-2-2-2------------------|
E|-----------------3-3-3-3-3-3-3-3-----------------3-3-3-3-3-3-3-3--|

e|---------------------------------------------------------------------------|
B|-3-3-3-3-3-3-3-3-3-3-3-3-3-3-3-3-3-3-3-3-3-3-3-3-3-3-3-3-3-3-3-3-3-3-3-3-3-|
G|-2-2-2-2-2-2-2-2-2-2-2-2-2-2-2-2-2-2-2-2-2-2-2-2-2-2-2-2-2-2-2-2-2-2-2-2-2-|
D|-0-0-0-0-0-0-0-0---------------------------------0-0-0-0-0-0-0-0-0-0-0-0-0-|
A|---------------------------------2-2-2-2-2-2-2-2---------------------------|
E|-----------------3-3-3-3-3-3-3-3-------------------------------------------|

CHORUS

                D                Bm
And when the daylight comes i'll have to go

       G                       D
But tonight i'm gonna hold you so close

                D              Bm
Cause in the daylight we'll be on our own

       G                       D
But tonight I need to hold you so close

   D        Bm          G    D
Oh-woah, oh-woah, oh-woaaaaaaaaah

   D        Bm          G    D
Oh-woah, oh-woah, oh-woaaaaaaaaah


Verse

Finger Picking

E|-2-2-2-2-2-2-2-2-0-0-0-0-0-0-0-0----------------------------|
B|-3-3-3-3-3-3-3-3-3-3-3-3-3-3-3-3----------------------------|
G|-2-2-2-2-2-2-2-2-2-2-2-2-2-2-2-2----------------------------|
D|------------------------------------------------------------|
A|------------------------------------------------------------|
E|------------------------------------------------------------|

Pre-chorus

e|------------------------------------------------------------------|
B|-3-3-3-3-3-3-3-3-3-3-3-3-3-3-3-3-3-3-3-3-3-3-3-3-3-3-3-3-3-3-3-3--|
G|-2-2-2-2-2-2-2-2-2-2-2-2-2-2-2-2-2-2-2-2-2-2-2-2-2-2-2-2-2-2-2-2--|
D|-0-0-0-0-0-0-0-0--------------------------------------------------|
A|---------------------------------2-2-2-2-2-2-2-2------------------|
E|-----------------3-3-3-3-3-3-3-3-----------------3-3-3-3-3-3-3-3--|

e|------------------------------------------------------------------|
B|-3-3-3-3-3-3-3-3-3-3-3-3-3-3-3-3-3-3-3-3-3-3-3-3-3-3-3-3-3-3-3-3--|
G|-2-2-2-2-2-2-2-2-2-2-2-2-2-2-2-2-2-2-2-2-2-2-2-2-2-2-2-2-2-2-2-2--|
D|-0-0-0-0-0-0-0-0---------------------------------0-0-0-0-0-0-0-0--|
A|---------------------------------2-2-2-2-2-2-2-2------------------|
E|-----------------3-3-3-3-3-3-3-3----------------------------------|

CHORUS

                D                Bm
And when the daylight comes i'll have to go

       G                       D
But tonight i'm gonna hold you so close

                D              Bm
Cause in the daylight we'll be on our own

       G                       D
But tonight I need to hold you so close

   D        Bm          G    D
Oh-woah, oh-woah, oh-woaaaaaaaaah

   D        Bm          G    D
Oh-woah, oh-woah, oh-woaaaaaaaaah


Bridge

e|---------------------------------------------------------------------|
B|---------------------------------------------------------------------|
G|---6---6---6---6----7---7---7---7----4---4---4---4----2---2---2---2--|
D|-7---7---7---7----9---9---9---9----5---5---5---5----4---4---4---4----|
A|---------------------------------------------------------------------|
E|---------------------------------------------------------------------|

e|---------------------------------------------------------------------|
B|---------------------------------------------------------------------|
G|---6---6---6---6----7---7---7---7----4---4---4---4----4---4---4---4--|
D|-7---7---7---7----9---9---9---9----5---5---5---5----5---5---5---5----|
A|---------------------------------------------------------------------|
E|---------------------------------------------------------------------|

CHORUS

                D                Bm
And when the daylight comes i'll have to go

       G                       D
But tonight i'm gonna hold you so close

                D              Bm
Cause in the daylight we'll be on our own

       G                       D
But tonight I need to hold you so close

D                Bm
And when the daylight comes i'll have to go

       G                       D
But tonight i'm gonna hold you so close

                D              Bm
Cause in the daylight we'll be on our own

       G                       D
But tonight I need to hold you so close

   D        Bm          G    D
Oh-woah, oh-woah, oh-woaaaaaaaaah

   D        Bm          G    D
Oh-woah, oh-woah, oh-woaaaaaaaaah
Tap to rate this tab
 
# A B C D E F G H I J K L M N O P Q R S T U V W X Y Z