Song name
# A B C D E F G H I J K L M N O P Q R S T U V W X Y Z

Martin Odonnell - Rock Anthem For Saving The World tab

----------------------
Rock Anthem for Saving the World
Martin O'Donnell
----------------------
Standard Tuning


e|----------------|
B|----------------|
G|----------------|
D|----------------|
A|--\2------------|
E|--\0------------|
       (Let Ring)

    P.M.                                                 P.M.
e|----------------------------------------------------|--------------------|
B|----------------------------------------------------|--------------------|
G|----------------------------------------------------|--------------------|
D|----------------------------------------------------|--------------------|
A|--2--2-22--2-22--2-22--2-22--2-22--2-22--2-22--2-22-|--2--2-22--2-22--2-2|
E|--0-0-0-0-0-0-0-0-0-0-0-0-0-0-0-0-0-0-0-0-0-0-0-0-0-|--0-0-0-0-0-0-0-0-0-|
          E      |     G     |     A     |     G               E      |

    P.M.                             P.M.
e|--------------------------------|----------------------------------------|
B|--------------------------------|----------------------------------------|
G|--------------------------------|----------------------------------------|
D|--------------------------------|----------------------------------------|
A|2--2-22--2-22--2-22--2-22--2-22-|--2--2-22--2-22--2-22--2-22--2-22--2-22-|
E|0-0-0-0-0-0-0-0-0-0-0-0-0-0-0-0-|--0-0-0-0-0-0-0-0-0-0-0-0-0-0-0-0-0-0-0-|
     G   |     A     |     G            E   |  G  |  A  |  G  |  E  |  G

    P.M.
e|-----------|---------------------------------------------17--12h14-14b1/2|
B|-----------|------------------------------------/17-17p15----------------|
G|-----------|-------------------------------------------------------------|
D|-----------|-------------------------------------------------------------|
A|-2-22--2-22|--5--------7--------4----------------------------------------|
E|0-0-0-0-0-0|--3--------5--------2------/14~--/\--------------------------|
    A  |  G  |  G     |  A     |  F#

e|12-14-15b16p14p12-12---15------------------------------------------------|
B|---------------------13--12---------15-----------------------------------|
G|---------------------------14-12-------14b15r14-12\11-12-11-9-11-7-7-----|
D|---------------------------------14-------------------------------9-9----|
A|-------------------------------------------------------------------------|
E|-------------------------------------------------------------------------|

e|171719-121214-141415-151517-171920b22~r20~*\12h14p12-12\10-10-10--9---------|
B|---------------------------------------------------------9--9--14-----------|
G|------------------------------------------------------------------------9---|
D|---------------------------------------------------------------------/10----|
A|----------------------------------------------------------------------------|
E|----------------------------------------------------------------------------|

             x
e|-7-10-7-8--6-7--5b7r5p3h5p3\2h3p2p0---------101012-121214-141415-151717\-|
B|8----------------------------------3p2p0---------------------------------|
G|-------------------------------------------------------------------------|
D|-------------------------------------------------------------------------|
A|-------------------------------------------------------------------------|
E|-------------------------------------------------------------------------|

e|171919\-1719/22-22-19-22-21-19-24\----|
B|--------------------------------------|
G|--------------------------------------|
D|--------------------------------------|
A|--------------------------------------|
E|--------------------------------------|

*  I wasn't sure how to write this but what I was trying to get across was a continuous 
while on the slow downward bend.
Tap to rate this tab
# A B C D E F G H I J K L M N O P Q R S T U V W X Y Z