Song name
# A B C D E F G H I J K L M N O P Q R S T U V W X Y Z

Martin Odonnell - Halo 2 Beholden tab

-------------------------------------------------------------------
   Beholden - Martin O'Donnell, Michael Salvatori, and Steve Vai
-------------------------------------------------------------------
Tabbed by: Gaylon Franks "OrnaFulsamee"
Email:spartan410@mindless.com

Tuning:Standard

This is the blues guitar part in the end credits of Halo 2.

0:29 - 0:54

e|---------------------------------------------------------------|
B|---16b17~--16~--------------14b16r14-14-14~--------------------|
G|----------------16~---13-16------------------13p11-16-13-13~---|
D|---------------------------------------------------------------|
A|---------------------------------------------------------------|
E|---------------------------------------------------------------|

e|---------------------------------------------------------|
B|----------14---------------------------------------------|
G|---13p11-----13-13p11-11~---13p11--16--------------------|
D|---------------------------------------16p14-16-14-14~---|
A|---------------------------------------------------------|
E|---------------------------------------------------------|

p:pull-off
b:bend
~:vibrato
Tap to rate this tab
# A B C D E F G H I J K L M N O P Q R S T U V W X Y Z