Song name
# A B C D E F G H I J K L M N O P Q R S T U V W X Y Z

Maryzark - Hindi Na tab

By-Francis
Location - Carmelite, Lucena City
Cp #- 09109712432
E-add- f_sario@yahoo.com  (friendster)add me!
School- Sacred Heart College


Intro
Guitar1
1.PM       PM         PM       PM                 
|----------------------------------------------------------|
|----------------------------------------------------------|
|-77------7777---------------------------------------------|
|-77-7*---7777-7*---4444------4444------x-4/5*-------------|
|-55---5*-5555---5*-4444-4*---4444-4*---x------------------|
|-------------------2222---2*-2222---2*-x------------------|
   PM       PM       PM               PM Pm               
|--------------------------------------------|
|--------------------------------------------|
|-44------4444------------------------44-----|
|-44-4*---4444-4*---5555-----5/4*-----55-55--|
|-22---2*-2222---2*-5555-5*-------5---55-55--|
|-------------------3333---3*-------5-33-33--|

2.
G1
|-------------------------------------|
|-------------------------------------|
|-7777777---------4444444-------------|
|-7777777-4444444-5555555-5555-77777--|2x
|-5555555-4444444-5555555-5555-77777--|
|---------2222222-3333333-3333-55555--|

G2
|----------------------------------------------------------------------|
|-5/7-5-7-87-----------------------------------------------------------|
|-----------9797-666666677777666669999997777-77-7-67--77-67-67---------|
|----------------------------------------------------------------------|
|----------------------------------------------------------------------|
|----------------------------------------------------------------------|

|-----------------------------------------------------------------------|
|-5~/7-575787-------------------------7777777/888888/777777/888888------|
|------------9797-66666669999997777777----------------------------------|
|-----------------------------------------------------------------------|
|-----------------------------------------------------------------------|
|-----------------------------------------------------------------------|


Verse
1.
1.PM       PM         PM       PM                 
|----------------------------------------------------------|
|----------------------------------------------------------|
|-77------7777---------------------------------------------|
|-77-7*---7777-7*---4444------4444------x-4/5*-------------|
|-55---5*-5555---5*-4444-4*---4444-4*---x------------------|
|-------------------2222---2*-2222---2*-x------------------|

   PM       PM       PM            PM  
|--------------------------------------------|
|--------------------------------------------|
|-44------4444-------------------------------|
|-44-4*---4444-4*---5555----------5555-------|
|-22---2*-2222---2*-5555-5*-------5555-5*----|
|-------------------3333---3*-----3333---3*--|

2.

1.PM       PM         PM       PM                 
|----------------------------------------------------------|
|----------------------------------------------------------|
|-77------7777---------------------------------------------|
|-77-7*---7777-7*---4444------4444------x-4/5*-------------|
|-55---5*-5555---5*-4444-4*---4444-4*---x------------------|
|-------------------2222---2*-2222---2*-x------------------|
  PM        PM       PM         PM
|--------------------------------------------------|
|--------------------------------------------------|
|-44------4444-------------------------------------|
|-44-4*---4444-4*---5555-------5555------5p4-------|
|-22---2*-2222---2*-5555-5*----5555-5*-------5-----|
|-------------------3333---3*--3333---3*-------5---|

Refrain (3x ata)

|-------------------------------------------------------------------------|
|-------------------------------------------------------------------------|
|-77----77-7p6p--77----77-7p6p-77----77-7p6p--77----77-7p6p-77----77-7p6p-|
|-77-7p-77-------77-7p-77------77-7p-77-------77-7p-77------77-7p-77------|
|-55----55-------55----55------55----55-------55----55------55----55------|
|-------------------------------------------------------------------------|

Prechorus
|------------------------------|
|------------------------------|
|------------------------------|
|------------------------------|
|-5--4----2---4--5---4--3-7----|<=?
|-3--2----0---2--3---2--3-5----|

|-------------------------------------|
|-------------------------------------|
|-7777777---------4444444-------------|
|-7777777-4444444-5555555-5555-77777--|2x
|-5555555-4444444-5555555-5555-77777--|
|---------2222222-3333333-3333-55555--|

Refrain2 (3x ata)

|-------------------------------------------------------------------------|
|-------------------------------------------------------------------------|
|-77----77-7p6p--77----77-7p6p-77----77-7p6p--77----77-7p6p-77----77-7p6p-|
|-77-7p-77-------77-7p-77------77-7p-77-------77-7p-77------77-7p-77------|
|-55----55-------55----55------55----55-------55----55------55----55------|
|-------------------------------------------------------------------------|

|-----------|
|-----------|
|-44--------|
|-55-55-----|
|-55-55-----|
|-33-33-----|


Interlude

1.PM       PM         PM       PM                 
|----------------------------------------------------------|
|----------------------------------------------------------|
|-77------7777---------------------------------------------|
|-77-7*---7777-7*---4444------4444------x-4/5*-------------|
|-55---5*-5555---5*-4444-4*---4444-4*---x------------------|
|-------------------2222---2*-2222---2*-x------------------|
  PM        PM       PM         PM
|--------------------------------------------------|
|--------------------------------------------------|
|-44------4444-------------------------------------|
|-44-4*---4444-4*---5555-------5555------5p4-------|
|-22---2*-2222---2*-5555-5*----5555-5*-------5-----|
|-------------------3333---3*--3333---3*-------5---|

|-------------------------------------------------------------------------|
|-------------------------------------------------------------------------|
|-77----77-7p6p--77----77-7p6p-77----77-7p6p--77----77-7p6p-77----77-7p6p-|
|-77-7p-77-------77-7p-77------77-7p-77-------77-7p-77------77-7p-77------|
|-55----55-------55----55------55----55-------55----55------55----55------|
|-------------------------------------------------------------------------|

|-----------|
|-----------|
|-44--------|
|-55-55-----|
|-55-55-----|
|-33-33-----|

Rpeat Chorus

Outro-

G1
|-------------------------------------|
|-------------------------------------|
|-7777777---------4444444-------------|
|-7777777-4444444-5555555-5555-77777--|2x
|-5555555-4444444-5555555-5555-77777--|
|---------2222222-3333333-3333-55555--|

G2
|-10------10-10------9-9------9-9---|
|----10-10-----10-10-----10-10------|
|-----------------------------------|
|-----------------------------------|Many times
|-----------------------------------|
|-----------------------------------|


Standard Tuning- ebgDAE
  
by rakiztahz_03@yahoo.com
or
f_sario@yahoo.com

made in Lucena City


Tap to rate this tab
 
# A B C D E F G H I J K L M N O P Q R S T U V W X Y Z