Song name
# A B C D E F G H I J K L M N O P Q R S T U V W X Y Z

Maryzark - Pillow tab

By-Francis
Location - Carmelite, Lucena City
Cp #-09287150674
E-add- f_sario@yahoo.com  (friendster)add me!
School- Sacred Heart Colleg

Tuning -Guitar 1 & 2 e b g d A D


INTRO
1.
Guitar1
e|---------------------------------------------|
b|---------------------------------------------|
g|----6*7*6*---6*7*6*6*------------------------|
d|-44-------44----------00-6*7*6*-00-6*7*6*6*--|
A|-44-------44----------00--------00-----------|
D|-44-------44----------00--------00-----------|

2.Guitar1&2
|-------------------------------------------------|
|-------------------------------------------------|
|------------------7777777777---------------------|
|-4-44-4-4-4-44-4--7777777777---------------------|
|-4-44-4-4-4-44-4--5555555555---------------------|
|-4-44-4-4-4-44-4---------------------------------|

3.
Guitar1
e|---------------------------------------------|
b|---------------------------------------------|
g|----6*7*6*---6*7*6*6*------------------------|
d|-44-------44----------00-6*7*6*-00-6*7*6*6*--|
A|-44-------44----------00--------00-----------|
D|-44-------44----------00--------00-----------|

Guitar2
|-------------------------------------------------|
|-------------------------------------------------|
|------------------7777777777---------------------|
|-4-44-4-4-4-44-4--7777777777---------------------|
|-4-44-4-4-4-44-4--5555555555---------------------|
|-4-44-4-4-4-44-4---------------------------------|


VERSE-F#m D 4x
  PM
Guitar1
|-------------------------------------------------|
|-------------------------------------------------|
|---------77-777-------------77-777---------------|
|-44-444--77-777----44-444---77-777---------------|2X
|-44-444--55-555----44-444---55-555---------------|
|-44-444------------44-444------------------------|

REF- E-D-E-D
Guitar1
|-------------------------------------------------|
|-------------------------------------------------|
|-------------------------------------------------|
|-22222--00000--22222-----------------------------|
|-22222--00000--22222--(PAUSE)--------------------|
|-22222--00000--22222-----------------------------|

Guitar2
|-------------------------------------------------|
|-------------------------------------------------|
|--9999999--7777777--99999999---------------------|
|--9999999--7777777--99999999---------------------|
|--7777777--5555555--77777777---------------------|
|-------------------------------------------------|

GUITAR2 ENTERS
|-------------------------------------------------|
|-------------------------------------------------|
|-------------------------------------------------|
|--6667799666677996666779966667799----------------|
|-------------------------------------------------|
|-------------------------------------------------|


CHORUS- A F#m E D 2X
Guitar1
|-------------------------------------------------|
|-------------------------------------------------|
|-------------------------------------------------|
|-7777777-4444444-2222222-000000------------------|2X
|-7777777-4444444-2222222-000000------------------|
|-7777777-4444444-2222222-000000------------------|

Guitar2
|-------------------------------------------------|
|-------------------------------------------------|
|-----------------9999999-777777------------------|
|-7777777-4444444-9999999-777777------------------|2X
|-7777777-4444444-7777777-555555------------------|
|-7777777-4444444---------------------------------|


PEPEAT-
VERSE-F#m D 4x
REF- E-D-E-D
CHORUS- A F#m E D 4X 
INTERLUDE-


|-------------------------------------------------|
|-------------------------------------------------|
|------------------7777777777---------------------|
|-4-44-4-4-4-44-4--7777777777---------------------|2x
|-4-44-4-4-4-44-4--5555555555---------------------|
|-4-44-4-4-4-44-4---------------------------------|


|-----|
|-----|
|-----|
|-4~---|
|-4~---|
|-4~---|


|---------------------------------------|
|---------------------------------------|
|---------------------------------------|
|-4-44-4-4-4-44-4-----77777777----------|
|-4-44-4-4-4-44-4-----------------------|
|-4-44-4-4-4-44-4-----------------------|

repeat chorus- end with intro 2


by rakiztahz_03@yahoo.com
or
f_sario@yahoo.com

made in Lucena City

Tap to rate this tab
# A B C D E F G H I J K L M N O P Q R S T U V W X Y Z