Song name
# A B C D E F G H I J K L M N O P Q R S T U V W X Y Z

Massari - Dont Let Go tab

DON'T LET GO
Crowned King

Gtr.1:Rhythm:(EADGBE)
Gtr.2:Lead:(EADGBE)

Intro
Gtr.2:(clean)
|-----------------|
|-------10--------|
|---9-10---7-9----| 2x do this part slowly
|-----------------|
|-----------------|
|-----------------|

then
Gtr.2:(Distortion)
|--------------------------------------------------------------|
|--------------------------------------------------------------|
|--9-9-9-9-9-10-10-10-10-10-14-14-14-14-14-7-7-7-7-7-9-9-9-9-9-| 2x
|--------------------------------------------------------------|
|--------------------------------------------------------------|
|--------------------------------------------------------------|

Gtr.1:(distorion)
|--------------------------------------------------------------|
|--------------------------------------------------------------|
|--9-9-9-9-9-10-10-10-10-10-14-14-14-14-14-7-7-7-7-7-9-9-9-9-9-|
|--------------------------------------------------------------| 2x
|--7-7-7-7-7--8--8--8--8--8-12-12-12-12-12-5-5-5-5-5-7-7-7-7-7-|
|--------------------------------------------------------------|


Verse:
Gtr.2:(clean)
|--------------------------|---------------------------|
|------10-----------10-----|------------10-------------|
|-9-10----7-9--9-10----7-9-|-0-9-0-10-0----0-7-0-9-----|
|--------------------------|---------------------------|
|--------------------------|---------------------------|
|--------------------------|---------------------------|

Chorus: same as Intro

Bridge:

Both Gtrs:(Distortion)
|--------------------------------------------------------|
|--------------------------------------------------------|
|--------------------------------------------------------|
|--------------------------------------------------------|
|-8-8-8-6-8-8-8-6-8-8-8-8-8-8-8-8-8-8-8-8-6-6-6-6-6-6-6-6|
|-6-6-6-4-6-6-6-4-6-6-6-6-6-6-6-6-6-6-6-6-4-4-4-4-4-4-4-4|
Tap to rate this tab
 
# A B C D E F G H I J K L M N O P Q R S T U V W X Y Z