Song name
# A B C D E F G H I J K L M N O P Q R S T U V W X Y Z

Massari - Smile For Me tab

massari
smile for me


guitar 1-INTRO            2X
e|-----------------------------|
B|-----16-16-16-16-16-16-15-13-|
G|--12-------------------------|
D|-----------------------------|
A|-----------------------------|
E|-----------------------------|

then this while giutar 2 plays chords
e|--------------------------------|
B|--------16-16-16-16-16-16-15-13-|
G|--12-13-------------------------|
D|--------------------------------|
A|--------------------------------|
E|--------------------------------|



e|-----------------------------------------------------------|
B|----16-16-16-16-16-16-15-13--------16-16-16-16-16-16-15-13-|
G|--13-------------------------13-12-------------------------|
D|-----------------------------------------------------------|
A|-----------------------------------------------------------|
E|-----------------------------------------------------------|

giutar 2 chords
e|------8-----8-------8------8--------3-----3------3------3----|
B|------9-----9-------9------9--------4-----4------4------4----|
G|------10----10------10-----10-------5-----5------5------5----|
D|------10----10------10-----10-------5-----5------5------5----|
A|--8---8-----8---8---8------8-----3--3-----3---3--3------3----|
E|-------------------------------------------------------------|


 this sequence is played throughout the whole song.
Tap to rate this tab
 
# A B C D E F G H I J K L M N O P Q R S T U V W X Y Z