Song name
# A B C D E F G H I J K L M N O P Q R S T U V W X Y Z

Massari - Real Love tab

0---------0---------0-----------|
--0---------0---------0---------|
----5---------5----- ----5------|
------7--- ------7---------7----|
--------------------------------|
--------------------------------|


0-----------|
--0---------|
----5-------|
------5-----|
------------| (4 X)INTRO AND ALL SONG
------------|
Tap to rate this tab
 
# A B C D E F G H I J K L M N O P Q R S T U V W X Y Z