Song name
# A B C D E F G H I J K L M N O P Q R S T U V W X Y Z

Mcfly - Falling In Love tab

McFly
Falling in Love
Radio:ACTIVE

SOLO
    D                       E
e|--11-11-11-10-10-10-------11-11-11-10-10-10-------|
B|--------------------11-11--------------------8-8--|
G|--------------------------------------------------|
D|--------------------------------------------------|   \
A|--------------------------------------------------|   |
E|--------------------------------------------------|   | x2
    F#m                      A                          |
e|--11-11-11-10-10-10--------13-13-13-13-13-13-13-13--| /
B|--------------------11-11---------------------------|
G|----------------------------------------------------|
D|----------------------------------------------------|
A|----------------------------------------------------|
E|----------------------------------------------------|

    D
e|--8h9-10-11-10-8------------------------------|
B|-----------------10-10-11-8--8-8-10-10-11-11--|
G|----------------------------------------------|
D|----------------------------------------------|
A|----------------------------------------------|
E|----------------------------------------------|

e|-8-8-9-9-11-11-13-13b14-11-13---------------|
B|--------------------------------------------|
G|--------------------------------------------|
D|--------------------------------------------|
A|--------------------------------------------|
E|--------------------------------------------|
Tap to rate this tab
 
# A B C D E F G H I J K L M N O P Q R S T U V W X Y Z