Song name
# A B C D E F G H I J K L M N O P Q R S T U V W X Y Z

Mcfly - Making Love tab

 G G/F# Em  Bm      G G/F# Em  Bm
Making looo-ooove, making looo-ooove,
         B           C         D7
making love, making love, making

e|------------------------------|
B|------------------------------|
G|--7-5-----5-4-----4-2---0-2---|
D|--------0-------0------------0| 2x
A|------------------------------|
E|------------------------------|

G
I don't have much in the way of possesions or money
                                              E
My empty pocket and wallet have seen better days
        C                D                     G G/F# Em
But I think to myself: 'why am I so worried out?'
                 Am-Bm-C-C#-D-D [1 time each chord/ you can use power chords]
'Cause if we're not making money
                            G   D7
we might as well be making love

G
I'm working day after day just to pay off the taxman (Taxman)
                                                  E
Counting the pounds and the pennies as they roll away
         C               D                       G G/F# Em
But I think to myself: 'I'm good with what I've got'
                 Am-Bm-C-C#-D-D
Cause if we're not making money
                          G    G7
baby, we should be making love

           C                                 G     G7
I can't afford the things you adore and I'm sorry
     C                  C#
But big diamond rings don't mean anything
  D7               Eb7
We're making love on the floor

G
Na, na, na, na...
                                                      E
The best thing in this life is love and it's totally free
         C               D                       G G/F# Em
But I think to myself: 'why am I so worried out?'
                 Am-Bm-C-C#-D-D
Cause if we're not making money
                          G    G7
baby, we should be making love

 G G/F# Em  Bm      G G/F# Em  Bm
Making looo-ooove, making looo-ooove,
         B           C         D7
making love, making love, making

e|-----------------------------|
B|-----------------------------|
G|--7-5-----5-4-----4-2---0-2--|
D|--------0-------0------------| 2x
A|-----------------------------|
E|-----------------------------|

Solo
e|---------------------------------7----|-----------------------------|
B|-----------------------------------6~-|-----------------------------|
G|--7-4-7-5-2-5-4-0-4-2---0-2-----------|--7-4-7-5-2-5-4-0-4-2---2-1--|
D|----------------------3---------------|----------------------3------|
A|--------------------------------------|-----------------------------|
E|--------------------------------------|-----------------------------|
    G                                                              E

[Tom still plays the piano, but there's no solo after that... maybe he didn't think 
that until that moment]

 C D  G G/F# Em   Am-Bm-C-C#-D-D  G G7

              C                              G     G7
I'm getting bored cause I can't afford entertainment
      C                   C#
But there in the show I'm acting I know
       D7              Eb7
the beasts making love on the floor

G
Na, na, na, na...
                                                      E
The best thing in this life is love and it's totally free
         C               D                       G G/F# Em
But I think to myself: 'I'm good with what I've got'
             Am-Bm-C-C#-D-D
So if we're not making money
                           Am-Bm-C-C#-D-D
girl, we should be making love
                         Am-Bm-C-C#-D-D
Oh, we should be making love
                   G G7
Honey! Let's make love

 G G/F# Em  Bm      G G/F# Em  Bm
Making looo-ooove, making looo-ooove,
         B           C         D7
making love, making love, making loooove...

e|------------------------------|
B|------------------------------|
G|--7-5-----5-4-----4-2---0-2---|
D|--------0-------0------------0| 4x
A|------------------------------|
E|------------------------------|

G|--7-5-------|
D|--------0...|

follow @assuntopendente
Tap to rate this tab
# A B C D E F G H I J K L M N O P Q R S T U V W X Y Z