Song name
# A B C D E F G H I J K L M N O P Q R S T U V W X Y Z

Md 45 - Chutney tab

                                 CHUTNEY
                                   MD45
                   (From The 2004 Album The Carving)


Transcribed by Jonathan Casper (confinedforever)

Gtr 1 & 2 - Tune Dow One Whole Step - (D G C F A D)

I listened carefully and it is tuned down half a step!



|---------------------------------|
|---------------------------------|
|---------------------------------|  x7
|--2-2-2-2-2-2-2-22-22------------|
|--2-2-2-2-2-2-2-22-22------------|
|--0-0-0-0-0-0-0-00-00------------|
   * * * * * * * ** **

|---------------------------------|
|---------------------------------|
|---------------------------------|
|--2-2-2-4---5---6----------------|
|--2-2-2-2---3---4----------------|
|--0-0-0---0---0------------------|
   * * *   *   *
    Riff 1:
|--------------------------------------------------------------------|
|--------------------------------------------------------------------|
|--------------------------------------------------------------------|
|--2-2-2-2-2-2-2-22-22-2-2-2-2-2-2-2-22-22-2-2-2-2-2-2-2-22-22-2-2-2-|
|--2-2-2-2-2-2-2-22-22-2-2-2-2-2-2-2-22-22-2-2-2-2-2-2-2-22-22-2-2-2-|
|--0-0-0-0-0-0-0-00-00-0-0-0-0-0-0-0-00-00-0-0-0-0-0-0-0-00-00-0-0-0-|
   * * * * * * * ** ** * * * * * * * ** ** * * * * * * * ** ** * * *
|-------------|
|-------------|
|-------------|  x4
|-4---5---6---|
|-2---3---4---|
|---0---0-----|
    *   *
   Riff 2:
|--------------------------------------------------------------------------|
|--------------------------------------------------------------------------|
|--------------------------------------------------------------------------|
|--------------------------------------------------------------------------|
|---10-8----9-7---8-6---6-7---10-8----9-7---8-6---6-7---10-8---9-7---8-6---|
|-0------10-----9-----8-----0------10-----9-----8-----0------10----9-----8-|

|----------------------------|
|----------------------------|
|----------------------------|
|---------------------4-5-6--|
|-6-7---10-8----9-7---2-3-4--|
|-----0------10-----9--------|

Notation:

10^        = bend a quarter step.
10b11      = bend a half step.
10b12      = bend a full step.
10b12r10   = bend and release.
[10]12     = pre-bend.
[10]12r10  = pre-bend and release.
{14}       = pick the 14th fret while holding the most 
             previous bend.
<17>       = touch the string above the 17th fret while 
             previous note(s) is(are) still ringing.

10b13*     = tremolo bar bend, from the 10th fret to the 13th fret.
7d4*       = tremolo bar dive, from the 7th fret to the 4th fret. 
12~*       = tremolo bar vibrato.

x   =  mute with fret-hand
*   =  palm mute
X\\ =  pick slide
h   =  hammer-on
p   =  pull-off
~   =  vibrato
t   =  finger tap
/   =  slide up
\   =  slide down
h.  =  natural harmonics
a   =  artificial harmonics
(9) =  ghost note
tm  =  trem picking
tr  =  trill
Tap to rate this tab
# A B C D E F G H I J K L M N O P Q R S T U V W X Y Z