Song name
# A B C D E F G H I J K L M N O P Q R S T U V W X Y Z

Megadeth - Head Crusher tab

Here's Chris's outro solo. There were no tabs for it. It's advanced to say the least but 
really short for a Megadeth solo.

Standard Tuning - EADGBE

Key (Pretty Simple)

h = Hammer on
p = Pull Off
b = Bend
r = Release

E|--------------------18-------18----18----------24-18-24-----------------|
B|-----------------------17-------17-------17--------------22b23r22-20-22-|
G|----------15----15--------15----------15----15--------------------------|
D|----14-------14---------------------------------------------------------|
A|-13----13---------------------------------------------------------------|
E|------------------------------------------------------------------------|

E|----16----17-16-18-17h18p17-16-17----16--------------------|
B|-17----18-------------------------18----17b18--17b18r17-15-|
G|-----------------------------------------------------------|
D|-----------------------------------------------------------|
A|-----------------------------------------------------------|
E|-----------------------------------------------------------|

E|----------17----------------17-18-21-18-17-------------------------------|-----------------19~-|
B|-17-18-20----20-18-17-18-20----------------20-18-17----------------------|---------------------|
G|----------------------------------------------------19-18----------------|--------16-16-16-----|
D|----------------------------------------------------------20-19-17-------|-19b20---------------|
A|-------------------------------------------------------------------20-19-|---------------------|
E|-------------------------------------------------------------------------|---------------------|

E|-19-20-22-24-24-24-24-24-24-24-24-24-24-24-24-22-24-22-20-22-20-19-19-20-22-20-19----------------|
B|----------------------------------------------------------------------------------22-18-17-18-20-|
G|-------------------------------------------------------------------------------------------------|
D|-------------------------------------------------------------------------------------------------|
A|-------------------------------------------------------------------------------------------------|
E|-------------------------------------------------------------------------------------------------|

E|-17-19-20-20-20-20-20-20-20-20-20-20-20-19-20-19-17-19-17-15-15-17h19p17-15----------|
B|----------------------------------------------------------------------------17-17-17-|
G|-------------------------------------------------------------------------------------|
D|-------------------------------------------------------------------------------------|
A|-------------------------------------------------------------------------------------|
E|-------------------------------------------------------------------------------------|

E|-15-17-19-15-----------------------------------------------------------------------|
B|-------------18-17-15--------------------------------------------------------------|
G|----------------------17-16-14-------------------------------------------------15~-|
D|-------------------------------17-15-14----------17-15-14--------------------------|
A|----------------------------------------17-15-14----------17-15-14-12--------------|
E|----------------------------------------------------------------------15-13-12-----|

E|--------------16-19-16-------16-------------13-------13----------------|
B|-15b17r15--17----------17-18----17-18-13-17----13-------13-------13----|
G|--------------------------------------------------16-------16-14----16-|
D|-----------------------------------------------------------------------|
A|-----------------------------------------------------------------------|
E|-----------------------------------------------------------------------|

E|-----------------------------------------------------|
B|-----------------------------------------------------|
G|-14-13-16-14-13----14-13-------13--------------------|
D|----------------15-------15-14----15-14-12-14-15-14~-|
A|-----------------------------------------------------|
E|-----------------------------------------------------|
Tap to rate this tab
 
# A B C D E F G H I J K L M N O P Q R S T U V W X Y Z