Song name
# A B C D E F G H I J K L M N O P Q R S T U V W X Y Z

Melee - Built To Last tab

hi,

Well, I listened to the song for a long time and I think this is very close.
I wasn't able to figure out the solo, sorry for that. Hope you like it!

intro
e|------------------------------------------------------------------------|
B|------------------------------------------------------------------------|
G|---6-6-6-6-6-6-6-6-------------------------------------6-6-6-6-6-6-6-6--|
D|---6-6-6-6-6-6-6-6--8-8-8-8-8-8-8-8--4-4-4-4--6-6-6-6--6-6-6-6-6-6-6-6--|
A|---4-4-4-4-4-4-4-4--8-8-8-8-8-8-8-8--4-4-4-4--6-6-6-6--4-4-4-4-4-4-4-4--|
E|---x-x-x-x-x-x-x-x--6-6-6-6-6-6-6-6--2-2-2-2--4-4-4-4-------------------|

palm muted

e|------------------------------------------------------------------------|
B|------------------------------------------------------------------------|
G|------------------------------------------------------------------------|
D|---6-6-6-6-6-6-6-6-------------------------------------6-6-6-6-6-6-6-6--|
A|---4-4-4-4-4-4-4-4--8-8-8-8-8-8-8-8--4-4-4-4--6-6-6-6--4-4-4-4-4-4-4-4--|
E|--------------------6-6-6-6-6-6-6-6--2-2-2-2--4-4-4-4-------------------|

verse
e|-----------------------------------------------------------------------|
B|-----------------------------------------------------------------------|
G|---6-6-6-6-6-6-6-6-6-6-6-6-6-6-6-6-------------------------------------|
D|---6-6-6-6-6-6-6-6-6-6-6-6-6-6-6-6--8-8-8-8--4-4-4-4--6-6-6-6-6-6-6-6--|
A|---4-4-4-4-4-4-4-4-4-4-4-4-4-4-4-4--8-8-8-8--4-4-4-4--6-6-6-6-6-6-6-6--|
E|---x-x-x-x-x-x-x-x-x-x-x-x-x-x-x-x--6-6-6-6--2-2-2-2--4-4-4-4-4-4-4-4--|2x

chorus

e|---------------------|         e|-------------------------------------|
B|---------------------|         B|-------------------------------------|
G|---------------------|         G|---6-6-6-6-6-6-6-6-------------------|
D|---3-3-3-3--4-4-4-4--|         D|---6-6-6-6-6-6-6-6--6-6-6-6-6-6-6-6--|
A|---3-3-3-3--4-4-4-4--|         A|---4-4-4-4-4-4-4-4--6-6-6-6-6-6-6-6--|
E|---1-1-1-1--2-2-2-2--| 2x      E|---x-x-x-x-x-x-x-x--4-4-4-4-4-4-4-4--|

palm muted

e|------------------------------------------------------------------------|
B|------------------------------------------------------------------------|
G|------------------------------------------------------------------------|
D|---6-6-6-6-6-6-6-6-------------------------------------6-6-6-6-6-6-6-6--|
A|---4-4-4-4-4-4-4-4--8-8-8-8-8-8-8-8--4-4-4-4--6-6-6-6--4-4-4-4-4-4-4-4--|
E|--------------------6-6-6-6-6-6-6-6--2-2-2-2--4-4-4-4-------------------|

verse
e|-----------------------------------------------------------------------|
B|-----------------------------------------------------------------------|
G|---6-6-6-6-6-6-6-6-6-6-6-6-6-6-6-6-------------------------------------|
D|---6-6-6-6-6-6-6-6-6-6-6-6-6-6-6-6--8-8-8-8--4-4-4-4--6-6-6-6-6-6-6-6--|
A|---4-4-4-4-4-4-4-4-4-4-4-4-4-4-4-4--8-8-8-8--4-4-4-4--6-6-6-6-6-6-6-6--|
E|---x-x-x-x-x-x-x-x-x-x-x-x-x-x-x-x--6-6-6-6--2-2-2-2--4-4-4-4-4-4-4-4--|2x

chorus

e|---------------------|         e|-------------------------------------|
B|---------------------|         B|-------------------------------------|
G|---------------------|         G|---6-6-6-6-6-6-6-6-------------------|
D|---3-3-3-3--4-4-4-4--|         D|---6-6-6-6-6-6-6-6--6-6-6-6-6-6-6-6--|
A|---3-3-3-3--4-4-4-4--|         A|---4-4-4-4-4-4-4-4--6-6-6-6-6-6-6-6--|
E|---1-1-1-1--2-2-2-2--| 2x      E|---x-x-x-x-x-x-x-x--4-4-4-4-4-4-4-4--|

verse
e|-----------------------------------------------------------------------|
B|-----------------------------------------------------------------------|
G|---6-6-6-6-6-6-6-6-6-6-6-6-6-6-6-6-------------------------------------|
D|---6-6-6-6-6-6-6-6-6-6-6-6-6-6-6-6--8-8-8-8--4-4-4-4--6-6-6-6-6-6-6-6--|
A|---4-4-4-4-4-4-4-4-4-4-4-4-4-4-4-4--8-8-8-8--4-4-4-4--6-6-6-6-6-6-6-6--|
E|---x-x-x-x-x-x-x-x-x-x-x-x-x-x-x-x--6-6-6-6--2-2-2-2--4-4-4-4-4-4-4-4--|2x

chorus

e|---------------------|         e|-------------------------------------|
B|---------------------|         B|-------------------------------------|
G|---------------------|         G|---6-6-6-6-6-6-6-6-------------------|
D|---3-3-3-3--4-4-4-4--|         D|---6-6-6-6-6-6-6-6--6-6-6-6-6-6-6-6--|
A|---3-3-3-3--4-4-4-4--|         A|---4-4-4-4-4-4-4-4--6-6-6-6-6-6-6-6--|
E|---1-1-1-1--2-2-2-2--| 2x      E|---x-x-x-x-x-x-x-x--4-4-4-4-4-4-4-4--|

outro (find out the rythm yourself)

e|-------------------------------------|
B|-------------------------------------|
G|---6-6-6-6-6-6-6-6-------------------|
D|---6-6-6-6-6-6-6-6--6-6-6-6-6-6-6-6--|
A|---4-4-4-4-4-4-4-4--6-6-6-6-6-6-6-6--|
E|---x-x-x-x-x-x-x-x--4-4-4-4-4-4-4-4--|

that's all, have fun
Tap to rate this tab
# A B C D E F G H I J K L M N O P Q R S T U V W X Y Z