Song name
# A B C D E F G H I J K L M N O P Q R S T U V W X Y Z

Melee - Rhythm Of The Rain tab

Hey Guys, I my guitar teacher gave me some help on this 
one just to touch things up a bit! It sounds good to me, 
and its also good with a acoustic or electric backup!

Guitar 1---Acoustic: tuning standard
Guitar 2---Electric or Acoustic: tuning standard

~CAPO 4~

Chords Used:

C--Em--G--D (pretty simple!)

Intro

Em  C  G  D x4



Intro (after 2 'rounds of the chords above)//verse//bridge//chorus//.

e-------------------------------------|
B----------4------------4-------------|
G--------4-----6---4-6----4---6-4-----|
D------6----------------------------8-|
A----6--------------------------------|
E--4----------------------------------|

e----------------------------------------------------|
B----------4-----------4-------4--------4------------|
G--------4-----6--4-6---4---6----4---6-----6--4------|
D------6------------------------------------------8~-|
A----6-----------------------------------------------|
E--4-------------------------------------------------|


Verse
Em-C-G-D x2

Bridge 
G-G-Em-Em

Chorus
G-G-D-D-C-C-Em-Em x2 D-D (second time around)
Tap to rate this tab
# A B C D E F G H I J K L M N O P Q R S T U V W X Y Z