Song name
# A B C D E F G H I J K L M N O P Q R S T U V W X Y Z

Metallica - For Whom The Bell Tolls tab

Intro: 0:08
|------------------------------------|
|------------------------------------|
|-----------------7-6-5-4------7-----|Play 4 times
|-4-4--4-4-2---------------5-4-------|
|-4-4--4-4-2-Lets Ring-----------5-4-|
|-2-2--2-2-0-------------------------|
                  *Bass for guitar(dist/wah)
Intro Part 2: 0:26
Basically the same thing
|--------------------------------|
|--------------------------------|
|-------7-6-5-4-------7----------|Play 4 times
|-2---------------5-4-------4--4-|
|-2-Let Ring------------5-4-4--4-|
|-0-------------------------2--2-|

 0:40      
|--------------|--------------|---------|             
|--------------|--------------|---------|             
|--------------|Play 4 times--|---------|
|-2------4-4-2-|--------------|--4--4---|
|-2------4-4-2-|--------------|--4--4---|
|-0------2-2-0-|--------------|--2--2---|

 0:56
P.M.............................................................
|------------------------------------------------------------------|
|------------------------------------------------------------------|
|------------------------------------------------------------------|X2
|--------------------------------2-------------------------------2-|Let the B
|--2-5-4-3-2-5-4-3-2-5-4-3-2-4-5-0-2-5-4-3-2-5-4-3-2-5-4-3-2-4-5-2-|Chord Ring
|--0-3-2-1-0-3-2-1-0-3-2-1-0-2-3---0-3-2-1-0-3-2-1-0-3-2-1-0-2-3---|On the 2nd

 (play 8 times
  PM.........................................................................
e:--------------------------------------|--------------------------------------|
B:--8-----7--------7--8-----7--------7--|--8-----7--------7--8-----7--------7--|
G:-----9-----7--9--------9-----7--9-----|------9-----7--9--------9-----7--9----|
D:--------------------------------------|--------------------------------------|
A:--------------------------------------|--------------------------------------|
E:--------------------------------------|--------------------------------------|

e|--(0)-------------------|during verse
a|--(2)-------------------|
d|--(2)-------------------|

(also the chorus)1:51 Both guitars
PM......   .....   .....        .......  ......  ......
|--------------------------------------------------------------|
|--------------------------------------------------------------|
|--------------------------3-----------------------------3-----|Two Times
|--------5-------7-------5-3-4---------5-------7-------5-3-4-3-|
|--------5-------7-------5-1-4---------5-------7-------5-1-4-3-|
|--0-0-0-3-0-0-0-5-0-0-0-3---2---0-0-0-3-0-0-0-5-0-0-0-3---2-1-|

Now play Riff D 2:39

Interlude 2:54 Both Guitars
|---------------------------------------|
|---------------------------------------|
|--12-9-11----9-------------------------|
|----------12---11-12-9-11----9---------|
|--------------------------12---10-2----|
|----------------------------------0----|

|--------------------------------------------------------|
|--------------------------------------------------------|
|--12-9-11----9------------------------------------------|
|----------12---11-12-9-11----9--------------------------|
|--------------------------12---10-5--5-5-5-5---5-5-5----|
|----------------------------------3--3-3-3-3---3-3-3----|

|---------------------------------------|
|---------------------------------------|
|--12-9-11----9-------------------------|
|----------12---11-12-9-11----9-----4---|
|--------------------------12---10--2---|
|---------------------------------------|

Gtr 2                                     Gtr 1
|------------------------------------7--|---------------------------------|
|---------------------------------------|---------------------------------|
|--12-9-11----9-------------------------|-12-9-11---9-11-12-9-11----9-11--|
|----------12---11-12-9-11----9---------|---------12-------------12------4|
|--------------------------12---10------|--------------------------------2|
|---------------------------------------|---------------------------------|
Gtr 2                                     Gtr 1
|------------------------------------7---|---------------------------------|
|--------------------------------------8-|---------------------------------|
|--12-9-11----9--------------------------|-12-9-11---9-11-12-9-11----9-11--|
|----------12---11-12-9-11----9----------|---------12-------------12------4|
|--------------------------12---10-------|--------------------------------2|
|----------------------------------------|---------------------------------|

|------------------------------------7--|---------------------------------|
|---------------------------------------|---------------------------------|
|--12-9-11----9-------------------------|-12-9-11---9-11-12-9-11----9-11--|
|----------12---11-12-9-11----9---------|---------12-------------12------4|
|--------------------------12---10------|--------------------------------2|
|---------------------------------------|---------------------------------|

Outro
Not in strict time
2nd time w/tremolo bar effects (till fade)
w/Bells
                                                              (Repeat and fade)
  E5(VII)      F#5(IX)      E5(VII)      F#5(IX)      G5(X)
e:-------------------------|-------------------------|------------------------|
B:-------------------------|-------------------------|------------------------|
G:-------------------------|-------------------------|------------------------|
D:--9----------11--11--11--|--9----------11--11--11--|--12--12--12------------|
A:--7----------9---9---9---|--7----------9---9---9---|--10--10--10------------|
E:-------------------------|-------------------------|------------------------|





                       Lyrics

Make his fight on the hills in the early days.
Constant chill deep inside.
Shouting gun, on they run through the endless grey.
On they fight for they're right Yes, but who's to say?
For a hill men would kill. Why? They do not know.
Suffered wounds test their pride. Men of five still alive through the raging glow.
Gone insane from the pain that they surely know.

For whom the bell tolls
Time marches on.
For whom the bell tolls

Take a look to the sky just before you die.
It's the last time he will.
Blackened roar massive roar, fills the crumbling sky.
Shattered goal fills his soul with a ruthless cry.
Stranger now are his eyes to this mystery.                                                     
Hears the silence so loud.
Crack of dawn, all is gone except the will to be.
Now they see, what will be, blinded eyes to see.

For whom the bell tolls.
Time marches on.
For whom the bell tolls
Tap to rate this tab
# A B C D E F G H I J K L M N O P Q R S T U V W X Y Z