Middle Class Rut - New Low tab

Here is a good song from Middle Class rut
by Siberianbreakks

Standard tuning

Guitar 1:

E----------------------------------------------------------------------|
A----------------------------------------------------------------------|
D----------------------------------------------------------------------|
G-14-14-14-14-14-14-14-14-14-14-14-14-14-14-14-14-14-14-14-14-14-14-14-|
B----------------------------------------------------------------------|
E----------------------------------------------------------------------|
PM *  *  *  *  *  *  *  *  *  *  *  *  *  *  *  *  *  *  *  *  *  *  *

E----------------------------------------------------------------------|
A----------------------------------------------------------------------|
D----------------------------------------------------------------------|
G-14-14-14-14-14-14-14-14-14-12-12-12-12-12-12-12-12-12-12-12-12-12-12-|
B----------------------------------------------------------------------|
E----------------------------------------------------------------------|
   *  *  *  *  *  *  *  *  *  *  *  *  *  *  *  *  *  *  *  *  *  *  *

E---------------------------------------------------------------------|
A---------------------------------------------------------------------|
D---------------------------------------------------------------------|
G-12-12-17-17-17-17-17-17-17-17-17-17-17-17-17-17-15-15---------------|
B---------------------------------------------------------------------|
E---------------------------------------------------------------------|
   *  *  *  *  *  *  *  *  *  *  *  *  *


Guitar 2:

E--------------------------|
A--------------------------|
D----------5---------------|
G-7--------5--------5------|
B-7--x16---3--x8----5--x8--|
E-5-----------------3------|
PM *  *  *  *  *  *  *  * 


First solo:

Solo:

E-20b-20b-20b-20b-19b-15b---19b-19b-19b-19b-20b-20b---20-19-15b--20-19-15--|b
A--------------------------------------------------------------------------|
D--------------------------------------------------------------------------|
G--------------------------------------------------------------------------|
B--------------------------------------------------------------------------|
E--------------------------------------------------------------------------|


Second solo:

E-15b---17b----15b---12b---20b--19b--15b-17b--------------------------|
A---------------------------------------------------------------------|
D---------------------------------------------------------------------|
G---------------------------------------------------------------------|
B---------------------------------------------------------------------|
E---------------------------------------------------------------------|

Tap to rate this tab
 
# A B C D E F G H I J K L M N O P Q R S T U V W X Y Z