Song name
# A B C D E F G H I J K L M N O P Q R S T U V W X Y Z

Miguel Llobet - La Nit De Nadal tab

Standard Tuning
4/4 time
E major


  C4--------|                     C2-----|       C4-----|

E--4-------7--12--9---7----|-4p0--5--4--2---0--|--4------7--12---|
B--5--7p5-------------5----|-3----2-----4---0--|--5--7p5---------|
G--4--------------9--------|-4----------2---1--|--4--------------|
D-------------11--7---6----|-2----2---------2--|------------11---|
A--------------------------|------0-----2------|-----------------|
E--0-----------------------|-------------------|--0--------------|

                      C2                                     Time

E--9--7--|--4p0--5--4--2----0--|--12----12--11-11--9-9--7---|-----|
B--8--9--|--2----3-----4----0--|-----10--------10---------7-|-3---|
G--8--9--|--3----4-----5-2--1--|---------------9---7-10-8---|-/---|
D--------|--4----3-----2-------|--10--------11--------------|-4---|
A--------|---------------------|----------------------------|-----|
E--------|------------------0--|----------------------------|-----|

                         Time

E-12---12--11--11--9--9--|-|7--4h5-7--9--7-------7--9-|-7--4/5--7-|
B---10---------10-----0--|4|----------------9/10----8-|-9-------7-|
G---11---------9---------|/|----------7--8------------|-----------|
D---------------------7--|4|6---------6--7------------|---------0-|
A------------------6-----|-|7---------8--9----------6-|-7---------|
E-8--------9-------------|-|--------------------------|-----------|

      C4---|       T                   C7------|    T

E-4h5-7--4h5-7--7-|-|-9---7---|-|-4----------------|-|---------7-|
B-----6------6----|2|-7-------|4|---5/10--9--7--5--|2|-----------|
G-----------------|/|-----7---|/|-3----------8-----|/|---------7-|
D------------0----|4|-7---6---|4|-2---9------7--6--|4|--6-4-2--6-|
A-----4-----------|-|-6---7---|-|-4---7---------7--|-|-----------|
E-----------------|-|---------|-|-2---7------7--0--|-|------0----|


         T                  T                            T
E-12--9-|-|-7---0-----5--4-|-|-2---0-----------7--12--9-|-|-0----|
B-10----|3|-5---9--5-----5-|4|-4---0------------------8-|3|-12---|
G-----8-|/|-----8--6--5--4-|/|-2---1--------------11----|/|-13---|
D-11--7-|4|-6--------------|4|-----2----6-4-2--6--8---9-|4|-12---|
A-------|-|----------------|-|-2------------------------|-|------|
E-------|-|-0--------------|-|--------------0-----------|-|------|


E--4--0--5--4-|-2--0-----|-12----12--11-11--9--9---7----|-12-----|
B--5-----0----|-1--0-----|-----9--------10-----10-----4-|-----9--|
G-------------|----1-----|---------------------9---0----|--------|
D--4-----3----|-2--------|------------------------------|--------|
A--5-----4----|-0--------|-7---------8------9-----------|-7------|
E-------------|----0-----|------------------------------|--------|


E-12--11-11--9---9--|-7--4h5-7--9--7--4h5-7--9-|------------16-17-|
B--------10------6--|-7---------6--7---------6-|12--9h10-12-------|
G--------9---0------|-8------------8---------0-|13----------------|
D-------------------|-6---------7--6-----------|13----------------|
A-----9-------------|--------------------------|11----------------|
E-------------------|--------------------------|------------------|


                  T            T  C4------------------------------|  C2 C4    C2
E-<19>---------7-|-|9---7-----|-|--4-----5--4-----2----0----------|
B--------------9-|2|10--10----|4|--5--5--2--5-----4----0----------|
G----------------|/|9---8-----|/|-----6--2--6-----2----1----------|
D----------------|4|7---------|4|-----6----------------2----------|
A--------------7-|-|----9-----|-|--6--4--------0--2----2----------|
E-------4h5-7----|-|----------|-|--------2--4----------0----------|
Tap to rate this tab
# A B C D E F G H I J K L M N O P Q R S T U V W X Y Z