Song name
# A B C D E F G H I J K L M N O P Q R S T U V W X Y Z

Milburn - Steeltown tab

Milburn, Steeltown
	
Tabbed by Bone Slinger	
My first Tab.  Not sure about the lyrics	
Great song about steel in Yorkshire.  
	
Chords:	
D       x  5  7  7  7  5	E       0  2  2  1  0  0
F#      2  4  4  3  2  2	D(2)   10 12 12 11 10 10
B       7  9  9  8  7  7	C#      9 11 11 10  9  9
A       5  7  7  6  5  5	
	
Bass Intro:	
G-------------------------------------------------------|	
D--00000---------------------00020----------------------|	
A--------------222220000000--------------2222200223344--|	
E-------2222022-------------------2222020---------------|	
	
Guitar Riff:	
e------0-2-5-2--2-2-0-----------0-2-5-7-5-7-10-12--(10-7-5-7)---------|	
B----3----------------3-2-3---3---------------------------------------|	
G--2------------------------2-----------------------------------------|	
D---------------------------------------------------------------------|	
A---------------------------------------------------------------------|	
E---------------------------------------------------------------------|	
	
Bridge:   D       F#      B       A    x3       E x8         A

	
Verse 1:	
D               F#             B        A
  Come on I'll take you down	To where you wanna go
D               F#                  B	          A
  I'll take you in the Steel Town	To where we'll be together Jones
D               F#             B	          A
  To where we made our mark	In the front of the front row
D               F#             B	      A
  The pavillion in the park	That's the place we used to go

Chorus:	
F#     A      B	
	       It don't mean that much to you
F#     A      B	
	       But it means so much to me
F#     A      D(2) - C# - B	E x8            A
	                                         He He Hey
Guitar Riff: (As above)	
Bridge: (As above)	
Verse 2: (First half of verse is single strums)	
D               F#             B	       A
  Come on I'll take you down	To where you should not go
D               F#                         B     A
  I'll show you where the body was found	   Up on Stanley Road
D               F#                    B	          A
  I'll take you where he was caught	After four years on the run
D               F#             B	  A
  He's still in there now	He's not proud of what he's done
Chorus	
F#     A      B	
	       It don't mean that much to you
F#     A      B	
	       But it means so much to me
F#     A      D(2) - C# - B	E x8            A
	
Bass Solo:	
G---------------------------------------------------------|	
D----02420------------020--00000000-----------------------|	
A--22-------02420--004---4----------4---------------------|	
E---------22----------------------------------------------|	
Guitar Solo:	
E--------------2-0---0--------------------------------------------------|
B------2--3--------3---3-2--------2---3---------------------------------|
G---4-------------------------4-----------------------------------------|
D-----------------------------------------------------------------------|
A-----------------------------------------------------------------------|
E-----------------------------------------------------------------------|
	
Chorus:	
F#     A      B	
	       It don't mean that much to you
F#     A      B	
	       But it means so much to me
F#     A      D(2) - C# - B	E x8            A
	
Chorus:	
F#     A      B	
	       It don't mean that much to you
F#     A      B	
	       But it means so much to me
F#     A      D(2) - C# - B	E x8          A
	                                       He He Hey
	
Guitar Outro: (Guitar Riff twice, Except end on 7-5-7-9-7)	
Tap to rate this tab
# A B C D E F G H I J K L M N O P Q R S T U V W X Y Z