Song name
# A B C D E F G H I J K L M N O P Q R S T U V W X Y Z

Mindless Self Indulgence - What Do They Know tab

-Mindless Self Indulgence-
-You'll Rebel To Anything-
-'What Do They Know'-

x=Stop note from sounding afterwards.
PM=Palm Mute

Standard Tuning (E,A,D,G,B,e)


(Intro is done with synthesizer)

Verse (Rap-like part)
||-----------------------|
||-----------------------|
||-----------------------|
||-------4-4---5-5-------|
||-2-2---2-2---3-3---4-4-|
||-0-0---------------2-2-|

Chorus
||------------------------------x2Then---------------------------|x1
||--------------------------------    ---------------------------|
||--------------------------------    ---------------------------|
||-5~--4~--7~---7x-5x-4x-2x-------    -5~--4~---3-3-3-3-3-3-3-3--|
||-3~--2~--5~---5x-3x-2x-0x-5x-7x-    -3~--2~---1-1-1-1-1-1-1-1--|
||--------------------------3x-5x-    ---------------------------|
PM                                              . . . . . . . .

Breakdown
||-------------------------x2Then------------------------|x1
||---------------------------    ------------------------|
||-4-4--4--------4-4--4------    ------------------------|
||-2-2--2--4-4---2-2--2------    -------4-4---5-5--------|
||---------2-2----------5--4-    -2-2---2-2---3-3---5-4--|
||----------------------3--2-    -0-0---------------3-2--|

This is the order(there are some synth parts in between as well,not noted)

Verse     - x2
Chorus    - x1
Verse     - x2
Chorus    - x1
Breakdown - x1
Verse     - x2
Chorus    - x1

This is a cool song from a cool band,
and a 100% correct tab(the frets)
from one of their fans. Enjoy!
Praises,Questions,Comments: lorenzo_gamefreak@hotmail.com
Tap to rate this tab
 
# A B C D E F G H I J K L M N O P Q R S T U V W X Y Z