Song name
# A B C D E F G H I J K L M N O P Q R S T U V W X Y Z

Mindless Self Indulgence - Money tab

13.Money:
-----------

It's pretty obvious when the guitar comes in...
e|||--------------------|-------------------|-------------------|--------------------||
B|||--------------------|-------------------|-------------------|--------------------||
G|||O-------------------|--------5-55-5555--|-------------------|--------5-55-5555--O||
D|||O-7-7-7-75-55-5555--|-3-3-3-35-55-5555--|-7-7-7-75-55-5555--|-3-3-3-35-55-5555--O||
A|||--7-7-7-75-55-5555--|-3-3-3-33-33-3333--|-7-7-7-75-55-5555--|-3-3-3-33-33-3333---||
E|||--5-5-5-53-33-3333--|-1-1-1-1-----------|-5-5-5-53-33-3333--|-1-1-1-1------------||
   
 ss ss ss ss         ss ss ss ss             ss      ss          ss
-------------------|-------------------|-------------------|-------------------|
-------------------|-------------------|-------------------|-------------------|
-------------------|-------------------|-555-----555-------|-555---------------|
-77-77-77-88-------|-77-77-77-88-------|-555-77--555-77----|-555-77------------|
-77-77-77-88-------|-77-77-77-88-------|-333-77--333-77----|-333-77------------|
-55-55-55-66-------|-55-55-55-66-------|-----55------55----|-----55------------|
                           
||--------------------|-------------------|-------------------|--------------------||
||--------------------|-------------------|-------------------|--------------------||
||O-------------------|--------5-55-5555--|-------------------|--------5-55-5555--O||
||O-7-7-7-75-55-5555--|-3-3-3-35-55-5555--|-7-7-7-75-55-5555--|-3-3-3-35-55-5555--O||
||--7-7-7-75-55-5555--|-3-3-3-33-33-3333--|-7-7-7-75-55-5555--|-3-3-3-33-33-3333---||
||--5-5-5-53-33-3333--|-1-1-1-1-----------|-5-5-5-53-33-3333--|-1-1-1-1------------||
 
 ss ss ss ss ss ss   ss ss ss ss ss ss   ss ss ss ss    
-------------------|-------------------|-------------------|-------------------|
-------------------|-------------------|-------------------|-------------------|
-55-22-55-22-55-22-|-55-22-55-22-55-22-|-55-22-55-22-2222--|-2222--2222-555----|
-55-22-55-22-55-22-|-55-22-55-22-55-22-|-55-22-55-22-2222--|-2222--2222-555----|
-33-00-33-00-33-00-|-33-00-33-00-33-00-|-33-00-33-00-0000--|-0000--0000-333----|
-------------------|-------------------|-------------------|-------------------|

-------------------|-------------------|
-------------------|-------------------|
-2222-2222-2222-555|-2222-2222-2~~-----|
-2222-2222-2222-555|-2222-2222-2~~-----|
-0000-0000-0000-333|-0000-0000-0~~-----|
-------------------|-------------------|

 ss ss ss ss         ss ss ss ss             ss      ss          ss 
-------------------|-------------------|-------------------|-------------------|
-------------------|-------------------|-------------------|-------------------|
-------------------|-------------------|-555-----555-------|-555---------------|
-77-77-77-88-------|-77-77-77-88-------|-555-77--555-77----|-555-77------------|
-77-77-77-88-------|-77-77-77-88-------|-333-77--333-77----|-333-77------------|
-55-55-55-66-------|-55-55-55-66-------|-----55------55----|-----55------------|


 |---------------------------------------------------------------------------------|
 |                                                                               x3|
||--------------------|-------------------|-------------------|--------------------||
||--------------------|-------------------|-------------------|--------------------||
||--------------------|--------5-55-5555--|-------------------|--------5-55-5555---||
||--7-7-7-75-55-5555--|-3-3-3-35-55-5555--|-7-7-7-75-55-5555--|-3-3-3-35-55-5555---||
||--7-7-7-75-55-5555--|-3-3-3-33-33-3333--|-7-7-7-75-55-5555--|-3-3-3-33-33-3333---||
||--5-5-5-53-33-3333--|-1-1-1-1-----------|-5-5-5-53-33-3333--|-1-1-1-1------------||
I NEED HELP WITH THE PART THAT COMES RIGHT AFTER YOU FINISH PLAYING THIS ONTOP!!!
 
 ss ss ss ss         ss ss ss ss             ss      ss          ss
-------------------|-------------------|-------------------|-------------------|
-------------------|-------------------|-------------------|-------------------|
-------------------|-------------------|-555-----555-------|-555---------------|
-77-77-77-88-------|-77-77-77-88-------|-555-77--555-77----|-555-77------------|
-77-77-77-88-------|-77-77-77-88-------|-333-77--333-77----|-333-77------------|
-55-55-55-66-------|-55-55-55-66-------|-----55------55----|-----55------------|
STOP! Pencils down!
 
Tap to rate this tab
# A B C D E F G H I J K L M N O P Q R S T U V W X Y Z