Song name
# A B C D E F G H I J K L M N O P Q R S T U V W X Y Z

Minor Threat - No Reason tab

   Verse
   _____________________________________  ___________________________________
  | 1.					 | 2.
E|--------------------------------------|------------------------9/11-9----9-|
B|--------------------------------(x4)--|--9-9-9-9-9-9-9-9-9-9-9--------12---|
G|--7-----------------------------------|------------------------------------|
D|--7--6-6-6-6-6--2-2-2--4-4-4-4--------|------------------------------------|
A|--5--6-6-6-6-6--2-2-2--4-4-4-4--------|--3th-time--------------------------|
E|-----4-4-4-4-4--0-0-0--2-2-2-2--------|------------------------------------|

   Chorus
E|------------------------------------|--------------------------------------|
B|------------------------------(x6)--|--------------------------------------|
G|--6-6-6--4-6-6-6-----7-7-7-7--------|--7-----------------------------------|
D|--4-4-4--4-6-6-6--7--7-7-7-7--------|--7--6--------------------------------|
A|---------2-4-4-4--7--5-5-5-5--------|--5--6--------------------------------|
E|------------------5-----------------|-----4--------------------------------|

   Repeat Verse/Chorus

   Solo

     E|---------------------------------------------------------------------------|
     B|---------------------------------------------------------------------(x4)--|
     G|----------------7----------------------------------------------------------|
  1. D|--2-2-2--4-4-4--7--6-6-6-6-6-6---------------------------------------------|
     A|--2-2-2--4-4-4--5--6-6-6-6-6-6---------------------------------------------|
     E|--0-0-0--2-2-2-----4-4-4-4-4-4---------------------------------------------|

     E|---------------------------------------------------------------------------|
     B|-----------------------------------------------9-9-9-9-9-9-9-9-9-9-9-9-9---|
     G|-----------------7---------------------------------------------------------|
  2. D|--2-2-2--4-4-4---7--6-6-6-6-6-6---2-2-2--4-4-4-----------------------------|
     A|--2-2-2--4-4-4---5--6-6-6-6-6-6---2-2-2--4-4-4-----------------------------|
     E|--0-0-0--2-2-2------4-4-4-4-4-4---0-0-0--2-2-2-----------------------------|

     E|---------------------------------------------------------------------------|
     B|----------------------------16-16-/--16-16-/-------------------------------|
     G|--8-6---6--6(8)--4----4----------------------------------------------------|
     D|------8------------6----6--------------------------------------------------|
     A|---------------------------------------------------------------------------|
     E|---------------------------------------------------------------------------|

  Repeat Verse

Tap to rate this tab
 
# A B C D E F G H I J K L M N O P Q R S T U V W X Y Z