Minus The Bear - Excuses tab

-------------------------------------------------------------------------------
			     Minus The Bear - Excuses
-------------------------------------------------------------------------------
Tabbed by: evanthetexan

not totally complete yet, but here's the intro/verses and chorus chords

intro/verses - clean with delay (ghost notes not shown, repeat as needed)
e|--13-------13-------13-------13-------11-------11-------11-------11-------|
B|-----14-------14-------14-------14-------11-------11-------11-------11----|
G|--------15-------15-------15-------15-------11-------11-------11-------11-|
D|--------------------------------------------------------------------------|
A|--------------------------------------------------------------------------|
E|--------------------------------------------------------------------------|

e|--13-------13-------13-------13-------16-------16-------16-------16-------|
B|-----14-------14-------14-------14-------16-------16-------16-------16----|
G|--------15-------15-------15-------15-------16-------16-------16-------16-|
D|--------------------------------------------------------------------------|
A|--------------------------------------------------------------------------|
E|--------------------------------------------------------------------------|



chorus (haven't gotten the last two measures of the chorus yet)
e|--6~--x-x-x-6~--x-x-x-4~--x-x-x-4~--x-x-x-6~--x-x-x-6~--------------------|
B|--6~--x-x-x-6~--x-x-x-4~--x-x-x-4~--x-x-x-6~--x-x-x-6~--------------------|
G|--6~--x-x-x-6~--x-x-x-4~--x-x-x-4~--x-x-x-6~--x-x-x-6~----(this part)-----|
D|--6~--x-x-x-6~--x-x-x-4~--x-x-x-4~--x-x-x-6~--x-x-x-6~----(is unknown)----|
A|--6~--x-x-x-6~--x-x-x-4~--x-x-x-4~--x-x-x-6~--x-x-x-6~--------------------|
E|--x---x-x-x-x---x-x-x-x---x-x-x-x---x-x-x-x---x-x-x-x---------------------|



so that's basically it. i'll keep working on it, questions/comments always welcome 
at e.s.sewell@gmail.com
Tap to rate this tab
 
# A B C D E F G H I J K L M N O P Q R S T U V W X Y Z