Song name
# A B C D E F G H I J K L M N O P Q R S T U V W X Y Z

Minutemen - The Struggle tab

Artist: Minutemen
Song: The Struggle

Tabbed by: Jose
Tuning: standard tuning EADGBE

(repeat x3)
E|--9--9--x-9----7-7-x-7---4-4-x-4---2-2-x-2-----------|
B|--10-10-x-10---7-7-x-7---4-4-x-4---3-3-x-3-----------|
G|--11-11-x-11---7-7-x-7---4-4-x-4---4-4-x-4-----------|
D|-----------------------------------------------------|
A|-----------------------------------------------------|
E|-----------------------------------------------------|

(x6)
E|--4-4-x-4----7-x-7-7-----------------|
B|--4-4-x-4----7-x-7-7-----------------|
G|--4-4-x-4----7-x-7-7-----------------|
D|-------------------------------------|
A|-------------------------------------|
E|-------------------------------------|

(x3)
E|--9--9--x-9----7-7-x-7---4-4-x-4---2-2-x-2-----------|
B|--10-10-x-10---7-7-x-7---4-4-x-4---3-3-x-3-----------|
G|--11-11-x-11---7-7-x-7---4-4-x-4---4-4-x-4-----------|
D|-----------------------------------------------------|
A|-----------------------------------------------------|
E|-----------------------------------------------------|

(x6)
E|--9--9--x-9----11-11-x-11-------------|
B|--10-10-x-10---12-12-x-12-------------|
G|--11-11-x-11---13-13-x-13-------------|
D|--------------------------------------|
A|--------------------------------------|
E|--------------------------------------|
Tap to rate this tab
# A B C D E F G H I J K L M N O P Q R S T U V W X Y Z