Song name
# A B C D E F G H I J K L M N O P Q R S T U V W X Y Z

Minutemen - Black Sheep tab

Artist: Minutemen
Song: Black Sheep
Album: "Joy" EP (1981)

Tuning: Eb (half-step down)


Part 1: strum this chord:
Eb|----5-------------------------|
Bb|----5-------------------------|
Gb|----5-------------------------|
Db|----7-------------------------|
Ab|----7-------------------------|
Eb|----5-------------------------|


Part 2 (0:21)
Eb|----------------------------------------------|
Bb|----------------------------------------------|
Gb|----------------------------------------------|
Db|-------9-7-------11-9--------16-14------------|
Ab|---7/9------8/10-------11/13------------------|
Eb|----------------------------------------------|


Part 3 (0:24)
Eb|---------------------------------------|
Bb|---------------------------------------|
Gb|--7-7-7-6-7-9-11-11-11-9-11-12-11------|
Db|--0-0-0-0-0-0-0--0--0--0-0--0--0-------|
Ab|---------------------------------------|
Eb|---------------------------------------|


Then play again:
Part 1
Part 2

And then this similar to part 3 but with an extended ending:
Eb|--------------------------------------------------------------|
Bb|--------------------------------------------------------------|
Gb|--7-7-7-6-7-9-11-11-11-9-11-12-11-11-11-9-7-9-7-7-7-6-4-6--/7-|
Db|--0-0-0-0-0-0-0--0--0--0-0--0--0--0--0--0-0-0-0-0-0-0-0-0-----|
Ab|--------------------------------------------------------------|
Eb|--------------------------------------------------------------|



Tap to rate this tab
 
# A B C D E F G H I J K L M N O P Q R S T U V W X Y Z