Song name
# A B C D E F G H I J K L M N O P Q R S T U V W X Y Z

Minutemen - Its Expected Im Gone tab

Help us improve GuitareTab! Take a short survey!
Band: Minutemen
Song: It's Expected I'm Gone


tabbed by jam9383@yahoo.com


Verse

e---------------------------------------------------------------------|
B---------------------------------------------------------------------|
G----------5-----------5-----------5-----7----------------------------|
D--7-7-7---5---7-7-7---5---7-7-7---5-----7----------------------------|
A--7-7-7---3---7-7-7---3---7-7-7---3-----5----------------------------|
E--5-5-5-------5-5-5-------5-5-5--------------------------------------|

Bridge

e---------------------------------------------------------------------|
B---------------------------------------------------------------------|
G---------------------------------------------------------------------|
D---7----7-----7------------------------------------------------------|
A---7----7-----7------------------------------------------------------|
E---5----5-----5------------------------------------------------------|

Solo

e---------------------------------------------------------------------|
B--------------------5--7--9-10-11-12br~----16-15-13--12h13p10--------|
G---4~---------4-5-7--------------------------------------------------|
D---------------------------------------------------------------------|
A---------------------------------------------------------------------|
E---------------------------------------------------------------------|

e---------------------------------------------------------------------|
B--16p15p13-13p12p10h10----------------------------------12-13b-------|
G------------------------------------12------------12-13--------------|
D---------------------------10-12h13------10-12h13--------------------|
A---------------------------------------------------------------------|
E---------------------------------------------------------------------|

e-------------------15-17^--------8-6-4-5b~-8-------------------------|
B--12-13h15-17-19b----------17~---------------------------------------|
G---------------------------------------------------------------------|
D---------------------------------------------------------------------|
A---------------------------------------------------------------------|
E---------------------------------------------------------------------|

any comments/corrections contact me, please rate
Related for Its Expected Im Gone tab