Song name
# A B C D E F G H I J K L M N O P Q R S T U V W X Y Z

Minutemen - Little Man With A Gun In His Hand tab

Band: Minutemen
Song: Little Man with a Gun in his Hand


tabbed by jam9383@yahoo.com


Intro/Bridge

e---------------------------------------------------------------------|
B---------------------------------------------------------------------|
G---------------------------------------------------------------------|
D--0-0-0-0-0--0-0-0-0-0--0-0-0-0--0--0-0-0-0--0-----------------------|
A--4-4-4-7-4--6-6-6-9-6--7-7-7-10-7--7-7-7-10-7-----------------------|
E--5-5-5-5-5--7-7-7-7-7--8-8-8-8--8--8-8-8-8--8-----------------------|

Pre-Verse

e---------------------------------------------------------------------|
B---9-9-9-9-9-9---8------8------8------8------6-----6-----6------6----|
G---9-9-9-9-9-9---9------9------9------9------7-----7-----7------7----|
D---9-9-9-9-9-9---10-----10-----10-----10-----8-----8-----8------8----|
A---7-7-7-7-7-7---10-----10-----10-----10-----8-----8-----8------8----|
E-----------------8------8------8------8------6-----6-----6------6----|

Verse

e-----5---------7--------3--------3-----------------------------------|
B-----5---------7--------3--------3-----------------------------------|
G-----6---------8--------4--------4-----------------------------------|
D-----7---------9--------5--------5-----------------------------------|
A-----7---------9--------5--------5-----------------------------------|
E-----5---------7--------3--------3-----------------------------------|

Interlude

e---------------------------------------------------------------------|
B---9----9----9----9--------------------------------------------------|
G---9----9----9----9--------------------------------------------------|
D---9----9----9----9--------------------------------------------------|
A---7----7----7----7--------------------------------------------------|
E---------------------------------------------------------------------|

e--9h10--10p9--7--5--7------------------------------------------------|
B-----------------------5---------------------------------------------|
G---------------------------------------------------------------------|
D---------------------------------------------------------------------|
A---------------------------------------------------------------------|
E---------------------------------------------------------------------|

x3                                x1
e---------------------------|-----------------------------------------|
B--12--x-x-x-x-x-x-x-x-x-x--|-----12----------------------------------|
G--12--x-x-x-x-x-x-x-x-x-x--|-----12----------------------------------|
D--12--x-x-x-x-x-x-x-x-x-x--|-----12----------------------------------|
A--10--x-x-x-x-x-x-x-x-x-x--|-----10----------------------------------|
E---------------------------|-----------------------------------------|

e-12-12-12-10-10-9-10-10-10-9-9-7-9-9-9-7-7-5-7-7-7-5-5-4-5-5-5-4-4-3-|
B---------------------------------------------------------------------|
G---------------------------------------------------------------------|
D---------------------------------------------------------------------|
A---------------------------------------------------------------------|
E---------------------------------------------------------------------|

e-4-4-3-2-1-0-0-0-0-0-0-----------------------------------------------|
B---------------------------------------------------------------------|
G---------------------------------------------------------------------|
D---------------------------------------------------------------------|
A---------------------------------------------------------------------|
E---------------------------------------------------------------------|

arpeggiate
e---------------------------------------------------------------------|
B---9----9----9----9--------------------------------------------------|
G---9----9----9----9--------------------------------------------------|
D---9----9----9----9--------------------------------------------------|
A---7----7----7----7--------------------------------------------------|
E---------------------------------------------------------------------|

e---------------------------------------------------------------------|
B-12-12-12-10-10-9-10-10-10-9-9-7-9-9-9-7-7-5-7-7-7-5-5-4-5-5-5-4-4-3-|
G---------------------------------------------------------------------|
D---------------------------------------------------------------------|
A---------------------------------------------------------------------|
E---------------------------------------------------------------------|

e---------------------------------------------------------------------|
B-4-4-3-2-1-0-0-0-0-0-0-----------------------------------------------|
G---------------------------------------------------------------------|
D---------------------------------------------------------------------|
A---------------------------------------------------------------------|
E---------------------------------------------------------------------|

e-12-12-12-12-12-12-12-12-12-12-12-12-12-12-12-12-12-12---------------|
B---------------------------------------------------------------------|
G---------------------------------------------------------------------|
D---------------------------------------------------------------------|
A---------------------------------------------------------------------|
E---------------------------------------------------------------------|

Chorus

e--12br-12br--12br-------12br--12br-12br------------------------------|
B---------------------------------------------------------------------|
G---------------------------------------------------------------------|
D---------------------------------------------------------------------|
A---------------------------------------------------------------------|
E---------------------------------------------------------------------|

any comments/corrections contact me, please rate
Tap to rate this tab
 
# A B C D E F G H I J K L M N O P Q R S T U V W X Y Z