Song name
# A B C D E F G H I J K L M N O P Q R S T U V W X Y Z

Minutemen - Corona tab

My first tab. The part with the repeated -3- at the end of each repeat contains a little
variation which I left out, but it works alright if you have the right rhythm. I left
verses out for simplicity since this is the part of the song everyone knows, but do 
out the rest of the album "Double Nickels on the Dime".


E|-------------------------------|
B|--3-5-7-0-7---5-3-1-3-3-33-3-3-|
G|--4-5-7-7-7---5-4-2-0-0-00-0-0-|
D|-------------------------------|
A|-------------------------------|
E|-------------------------------|

E|---------------------------------------|
B|-3-5-7-0-7--3-5-7-0-7--5-3-1-3-3-33-3-3|
G|-4-5-7-7-7--4-5-7-7-7--5-4-2-0-0-00-0-0|
D|---------------------------------------| X3
A|---------------------------------------|
E|---------------------------------------|

E|-----|
B|-----|
G|-----|
D|-----|
A|-----|
E|-6/3-|
Tap to rate this tab
# A B C D E F G H I J K L M N O P Q R S T U V W X Y Z