Song name
# A B C D E F G H I J K L M N O P Q R S T U V W X Y Z

Minutemen - King Of The Hill tab

artist: minutemen		
song: king of the hill
tuning: standard
tabbed by: batesyy

/intro 

|-7---5------------|
|-7---5------------|
|-8---6------------|
|-9---7--------5h7-| 
|-9---7---5h7------|  
|-7---5------------|

/verse

|-7---5---|
|-7---5---|
|-8---6---|
|-9---7---| 
|-9---7---|  
|-7---5---|

/pre chorus

|-3----2-|
|-3----2-|
|-4----2-|
|-5----4-|
|-5----4-|
|-3----2-|

/chorus

|------------------|
|------------------|
|-4----7-----------|
|-4----7----5----7-|
|-2----5----5----7-|
|-----------3----5-|

/bridge


|----------------------------------------------------------------------|
|----------------------------------------------------------------------|
|--------5-5p4------------------------5h7-4h5-4------------------------|
|-5-5h7--------5-4-4h5p4--------4-5-7-----------5-5h7-4--7-5-4---------|
|------------------------5--5h7--------------------------------7-5-4-2-|
|----------------------------------------------------------------------|



/outro

|-7---5------------|
|-7---5------------|
|-8---6------------|
|-9---7--------5h7-| 
|-9---7---5h7------|  
|-7---5------------|

Tap to rate this tab
# A B C D E F G H I J K L M N O P Q R S T U V W X Y Z