Song name
# A B C D E F G H I J K L M N O P Q R S T U V W X Y Z

Minutemen - King Of The Hill tab

                        Minutemen - King of the Hill


Tabbed by Aoakaua
goldendawn04@hotmail.com


Riff A

e||-----7-----5------------------------||
B||----------(5)-----------------------||
G||----------(6)-----------------------||
D||--------------------------5h7-------||
A||--------7-----x-x--5h7--7------x-x--||
E||--7-----5---------------------------||

      B     A

Verse

e||-----7-----5---||
B||----------(5)--||
G||----------(6)--||
D||---------------||
A||--------7------||
E||--7-----5------||

Riff B

e||--3---2--||
B||--3---2--||
G||--4---2--||
D||---------||
A||---------||
E||---------||

     G  F#min

Riff C

e||--7---10---3---5--||
B||--7---10---3---5--||
G||--7---11---4---6--||
D||--9---12---5---7--||
A||--9---12---5---7--||
E||--7---10---3---5--||

   Bmin   D    G   A 

Solo 

e||---------------------------|--------------------------|
B||---------------------------|--------------------------|
G||--7h9-9-7h9-9-7h9-9--7h9-9-|--7h9-9-7h9-9-7h9-9-7h9-9-|
D||---------------------------|--------------------------|
A||---------------------------|--------------------------|
E||---------------------------|--------------------------|


e||-----------------------|----------------------|
B||-----------------7-7-7-|-10-8-7---------------|
G||---9p7---7--9b11-------|--------9b11--11r9-7--|
D||-------9---------------|----------------------|
A||-----------------------|----------------------|
E||-----------------------|----------------------|

e||-----------------------|-----------------7-9--|
B||----------------7--7---|--7-------7-9-10------|
G||----7-----------7--7---|----9-7-9-------------|
D||--9---9-9-7---7------9-|----------------------|
A||------------9----------|----------------------|
E||-----------------------|----------------------|

e||--9-7------------------|-----------------------------|
B||------10-7-10-7--------|-----------------------------|
G||-----------------9-7---|-9b11-11r9-7---7-------------|
D||-----------------------|-------------9---9-7-9-7---7-|
A||-----------------------|-------------------------9---|
E||-----------------------|-----------------------------|

Interlude

||----------------------------------------------------------------------|
||----------------------------------------------------------------------|
||--------5-5p4------------------------5h7-4h5-4------------------------|
||-5-5h7--------5-4-4h5p4--------4-5-7-----------5-5h7-4--7-5-4---------|
||------------------------5--5h7--------------------------------7-5-4---|
||--------------------------------------------------------------------7-|

Song structure :

Riff A - x8
Verse  - x4
Riff B - x4 (but fourth time don't play the F#min Chord)
Riff C
Verse  - x4
Riff B - x4 (but fourth time don't play the F#min Chord)
Riff C
Solo
Verse  - x4
Interlude
Riff C
Riff A - fade out
Tap to rate this tab
# A B C D E F G H I J K L M N O P Q R S T U V W X Y Z