Misc Cartoons - Kick Buttowski Theme tab

-------------------------------------------------------------------------------
			     kick buttowski theme
-------------------------------------------------------------------------------
Tabbed by: tubirubi

Tuning: standard

e|---------------------------------------------------------------------------|
B|---------------------------------------------------------------------------|
G|---------------------------------------------------------------------------|
D|---9------------2------------9---------------2-----------------------------|
A|---9------------2------------9---------------2-----------------------------|
E|---7------------0------------7---------------0-----------------------------|

e|---------------------------------------------------------------------------|
B|---------------------------------------------------------------------------|
G|---------------------------------------------------------------------------|
D|---9/-2---2--2--5------2--2--2--5------7-----------------------------------|
A|---9/-2---2--2--5------2--2--2--5------7-----------------------------------|
E|---7/-0---0--0--3------0--0--0--3------5-----------------------------------|   x( a lot )
Tap to rate this tab
 
# A B C D E F G H I J K L M N O P Q R S T U V W X Y Z