Song name
# A B C D E F G H I J K L M N O P Q R S T U V W X Y Z

Misc Cartoons - Code Lyoko Theme tab

This is the song A World Without Danger. It is the theme song to 
the cartoon Code Lyoko. 
I have done this by ear so it might not be 100% accurate. 
Also I have tabbed out the Lead and Rhythm guitar.
Tuning - Standard (EADGBe)

LEAD

Intro Lead
e|----8-6-5--|   |-6-5----|
B|-6-6-6-6-6-|   |----6-8-|
G|-----------|X3 |--------|Play both two times
D|-----------|   |--------|
A|-----------|   |--------|
E|-----------|   |--------|

e|-88888888-33333333-55555555-66666666-|
B|-------------------------------------|X2 Into Verse
G|-------------------------------------|

Verse lead
Listen out for this bit
e|----------------------|
B|----------------------|
G|----------------------|
D|-10~-5~-7~-8-10-8-5h7-|
A|----------------------|
E|----------------------|

Pre chorus Lead
e|--------|
B|-----6-8|
G|-3-5----|

Chorus Lead
e|-8-6-5-----------8-6-5------5--|
B|-------8-5-6-8-3------6-6-8--6-|
G|-------------------------------|
D|-------------------------------|x4
A|-------------------------------|
E|-------------------------------|

Chorus Melody
 
e|--------------------------|
B|---6-6---6-6---6-6-5-3-5--|
G|-5-----5-----5------------|

e|-----------------------|
B|---6-6---6-6---6-6-5-3-|
G|-5-----5-----5---------|

e|----------------------------|
B|---6-6---6-6--6-6-5-3-5-6-6-|
G|-5-----5-----5--------------|

e|--8-6-5-6--------------------|
B|----------6------------------|
G|-5---------------------------|

Verse
Pre-chorus
Chorus

Middle 8 Lead
Listen out for this part
e|-------------------------------|
B|-6--8------------6-6-6-8-(x16)-|
G|--5--3-3-3-5-5-5---------------|
D|-------------------------------|
A|-------------------------------|
E|-------------------------------|

Chorus x2

Outro Lead
e|-8-6-5-----------8-6-5------5--|
B|-------8-5-6-8-3------6-6-8----|
G|-------------------------------|
D|-------------------------------|
A|-------------------------------|
E|-------------------------------|

e|-8-6-5-----------8-6-5------5--|
B|-------8-5-6-8-3------6-6-8--6-|
G|-------------------------------|
D|-------------------------------|
A|-------------------------------|
E|-------------------------------|


RHYTHM

Intro Rhythm 
e|------------|
B|------------|
G|-10-5-7---8-|
D|-10-5-7-8-8-|
A|-8--3-5-8-6-|
E|--------6---|

e|-----------------|
B|-----------------|
G|-10~-5~-7~----8~-|
D|-10~-5~-7~-8~-8~-|
A|-8~--3~-5~-8~-6~-|
E|-----------6~----|

Verse Rhythm

e|------------|
B|------------|
G|-10-5-7---8-|
D|-10-5-7-8-8-|x2 Work out the strumming pattern
A|-8--3-5-8-6-|
E|--------6~--|

Or you can do this
e|-88888888-33333333-55555555-66666666-|
B|-------------------------------------|X2 Into Pre chorus
G|-------------------------------------|

Pre chorus Rhythm
e|-----------|
B|-----------|
G|-3-5-10-12-|
D|-3-5-10-12-|
A|-1-3-8--10-|
E|-----------|

Verse
Pre-chorus
Chorus

Chorus Rhythm
e|-----------------|
B|-----------------|
G|-10~-5~-7~----8~-|
D|-10~-5~-7~-8~-8~-|x4
A|-8~--3~-5~-8~-6~-|
E|-----------6~----|


Middle 8 Rhythm
e|-------------|
B|-------------|
G|-3~-5~-7~-5~-|
D|-3~-5~-7~-5~-|
A|-1~-3~-5~-3~-|
E|-------------|

e|---------------------------------|
B|---------------------------------|
G|-3-3-3~-5-5-5~-10-10-10-12-------|
D|-3-3-3~-5-5-5~-10-10-10-12-(x16)-|
A|-1-1-1~-3-3-3~-8--8--8--10-------|
E|---------------------------------|

Chorus x2

Outro Rhythm
e|-----------------|
B|-----------------|
G|-10~-5~-7~----8~-|
D|-10~-5~-7~-8~-8~-|x2
A|-8~--3~-5~-8~-6~-|
E|-----------6~----|

e|-----|
B|-----|
G|-10~-|
D|-10~-|x4
A|-8~--|
E|-----|
Tap to rate this tab
# A B C D E F G H I J K L M N O P Q R S T U V W X Y Z