Song name
# A B C D E F G H I J K L M N O P Q R S T U V W X Y Z

Misc Computer Games - Monkey Island Theme tab

-------------------------------------------------------------------------------
                     MONKEY ISLAND THEME SONG - LucasArts
-------------------------------------------------------------------------------

Tuning: Standard


This is the flute lead transitioned to guitar.
Another guitar can play as background: Em C (listen the song for rhytm).


Main:
e|--------------------------------------------------------|
B|--------------------------------------------------------|
G|---9--9---9-12-11-9----9--------7--7------7-------------|
D|--------------------12-------7-------10-9---10--10--9---|
A|--------------------------------------------------------|
E|--------------------------------------------------------|

e|---------------------------------------------|
B|----------------------------------------10---|
G|---9--9---9-12-11-9----9-----11-12--12-------|
D|--------------------12-----------------------|
A|---------------------------------------------|
E|---------------------------------------------|

e|-----------------------------------------------------|
B|---~7--8-7-----7-8--8--7---------8-7-----7-8--8--7---|
G|---------- 9-7---------------~9------9-7-------------|
D|-----------------------------------------------------|
A|-----------------------------------------------------|
E|-----------------------------------------------------|

e|----------------------------------------------------|
B|-------8-7------------------------------------------|
G|---~9------9-7--9--9--9-----9--7------7-------------|
D|---------------------------------10-9---10--10--9---|
A|----------------------------------------------------|
E|----------------------------------------------------|


Bridge:
e|---------------------------------------------------|
B|---12--15--13-------------13-12----13-12-----------|
G|---------------12--12-----------14--------12--12---|
D|---------------------------------------------------|
A|---------------------------------------------------|
E|---------------------------------------------------|

e|----------------------------------------------------------|
B|-------10----------------12----------12-------------------|
G|---12-----------------14----14-12-14-----12--12-----------|
D|-----------12--12--------------------------------12--12---|
A|----------------------------------------------------------|
E|----------------------------------------------------------|


Outro:
e|-------------------------------------------|
B|-------10-----10---------13---12-----------|
G|---12-------------12-----------------------|
D|----------------------------------12--12---|
A|-------------------------------------------|
E|-------------------------------------------|

e|---------------------------------------------------|
B|---------------------------------------------------|
G|---9---9-12-11-9----9------7--7------7-------------|
D|-----------------12-------------10-9---10--10--9---|
A|---------------------------------------------------|
E|---------------------------------------------------|

e|---------------------------------------------|
B|----------------------------------------10---|
G|---9--9---9-12-11-9----9-----11-12--12-------|
D|--------------------12-----------------------|
A|---------------------------------------------|
E|---------------------------------------------|

e|-----------------------------------------------------|
B|---~7--8-7-----7-8--8--7---------8-7-----7-8--8--7---|
G|---------- 9-7---------------~9------9-7-------------|
D|-----------------------------------------------------|
A|-----------------------------------------------------|
E|-----------------------------------------------------|

e|-------------------------------------------|
B|-------8-7---------------------------------|
G|---~9------9-7--9--9--9-----7--------------|
D|------------------------------10-9-10--9---|
A|-------------------------------------------|
E|-------------------------------------------|

e|------------------------------------------------------------|
B|------------------------------------------------------------|
G|---9---9--12-11-9-----9--9-----12-14-12-11-14-12----11--9---|
D|------------------12-----------------------------14---------|
A|------------------------------------------------------------|
E|------------------------------------------------------------|



************************************

| ~   vibrato

************************************
Tap to rate this tab
 
# A B C D E F G H I J K L M N O P Q R S T U V W X Y Z