Song name
# A B C D E F G H I J K L M N O P Q R S T U V W X Y Z

Misc Computer Games - Deadly Premonition - Whistle Theme tab

|------------------------------------------------|
|-----3----3-------5----5------5---5------3----3-|
|------------------------------------------------|
|-----------------------2----------2----0-0--0--0|
|----------2----4--4-4----4--3-3-3---3-----------|
|--3--3--3---3-----------------------------------|

|-------------------------------------------------|
|-----3----3-------5----5------5---5----3--5--7--3|
|-------------------------------------------------|
|-----------------------2----------2----0--2--4--0|
|----------2----4--4-4----4--3-3-3---3------------|
|--3--3--3---3------------------------------------|
Tap to rate this tab
# A B C D E F G H I J K L M N O P Q R S T U V W X Y Z