Misc Computer Games - Final Fantasy Xiii - Sayuri Sugawara - Kimi Ga Iru Kara tab

----------------------------------------------------------------------------
        SAYURI SUGAWARA - KIMI GA IRU KARA INTRO(OST. FINAL FANTASY XIII)
----------------------------------------------------------------------------
title KIMI GA IRU KARA INTRO(OST. Final Fantasy XIII)
song by Sayuri Sugawara

tabbed by cradth helverd


INTRO

e|------4--------------------2s9---7--6h7p6-4---------0------------------------|
B|--4-----4---0-2-4-2----------0------------5---------0---4--0----0----7--4----|
G|--4-----0-------------------------------------4---------------6---6----------|
D|--3---------------1-----1----0-------------------6--6-------------------5----|
A|---------------------1--------------------4----------------------------------|
E|--------0-----------------------------------------------------2---------3----|



fine, hope u like it! ^^
any comments, questions or corrections, 
then mail me/add my facebook at cradth@hotmail.com
thanks--

Tap to rate this tab
 
# A B C D E F G H I J K L M N O P Q R S T U V W X Y Z